  0
SECTION
  2
HEADER
  9
$ACADVER
  1
AC1015
  9
$ACADMAINTVER
 70
     6
  9
$DWGCODEPAGE
  3
ANSI_1254
  9
$INSBASE
 10
0.0
 20
0.0
 30
0.0
  9
$EXTMIN
 10
0.0
 20
0.0
 30
0.0
  9
$EXTMAX
 10
279.4
 20
215.9
 30
0.0
  9
$LIMMIN
 10
0.0
 20
0.0
  9
$LIMMAX
 10
279.4
 20
215.9
  9
$ORTHOMODE
 70
     0
  9
$REGENMODE
 70
     1
  9
$FILLMODE
 70
     1
  9
$QTEXTMODE
 70
     0
  9
$MIRRTEXT
 70
     1
  9
$LTSCALE
 40
1.0
  9
$ATTMODE
 70
     1
  9
$TEXTSIZE
 40
3.5
  9
$TRACEWID
 40
1.0
  9
$TEXTSTYLE
  7
Standard
  9
$CLAYER
  8
0
  9
$CELTYPE
  6
ByLayer
  9
$CECOLOR
 62
   256
  9
$CELTSCALE
 40
1.0
  9
$DISPSILH
 70
     0
  9
$DIMSCALE
 40
1.0
  9
$DIMASZ
 40
3.5
  9
$DIMEXO
 40
1.0
  9
$DIMDLI
 40
3.75
  9
$DIMRND
 40
0.0
  9
$DIMDLE
 40
0.0
  9
$DIMEXE
 40
1.0
  9
$DIMTP
 40
0.0
  9
$DIMTM
 40
0.0
  9
$DIMTXT
 40
3.5
  9
$DIMCEN
 40
2.5
  9
$DIMTSZ
 40
0.0
  9
$DIMTOL
 70
     0
  9
$DIMLIM
 70
     0
  9
$DIMTIH
 70
     1
  9
$DIMTOH
 70
     1
  9
$DIMSE1
 70
     0
  9
$DIMSE2
 70
     0
  9
$DIMTAD
 70
     1
  9
$DIMZIN
 70
     0
  9
$DIMBLK
  1

  9
$DIMASO
 70
     1
  9
$DIMSHO
 70
     1
  9
$DIMPOST
  1

  9
$DIMAPOST
  1

  9
$DIMALT
 70
     0
  9
$DIMALTD
 70
     3
  9
$DIMALTF
 40
0.0393700787
  9
$DIMLFAC
 40
1.0
  9
$DIMTOFL
 70
     1
  9
$DIMTVP
 40
0.0
  9
$DIMTIX
 70
     0
  9
$DIMSOXD
 70
     0
  9
$DIMSAH
 70
     0
  9
$DIMBLK1
  1

  9
$DIMBLK2
  1

  9
$DIMSTYLE
  2
ISO-25
  9
$DIMCLRD
 70
     0
  9
$DIMCLRE
 70
     0
  9
$DIMCLRT
 70
     0
  9
$DIMTFAC
 40
1.0
  9
$DIMGAP
 40
1.524
  9
$DIMJUST
 70
     0
  9
$DIMSD1
 70
     0
  9
$DIMSD2
 70
     0
  9
$DIMTOLJ
 70
     0
  9
$DIMTZIN
 70
     0
  9
$DIMALTZ
 70
     0
  9
$DIMALTTZ
 70
     0
  9
$DIMUPT
 70
     0
  9
$DIMDEC
 70
     2
  9
$DIMTDEC
 70
     2
  9
$DIMALTU
 70
     2
  9
$DIMALTTD
 70
     3
  9
$DIMTXSTY
  7
Standard
  9
$DIMAUNIT
 70
     0
  9
$DIMADEC
 70
     2
  9
$DIMALTRND
 40
0.0
  9
$DIMAZIN
 70
     0
  9
$DIMDSEP
 70
    44
  9
$DIMATFIT
 70
     3
  9
$DIMFRAC
 70
     0
  9
$DIMLDRBLK
  1

  9
$DIMLUNIT
 70
     2
  9
$DIMLWD
 70
    -2
  9
$DIMLWE
 70
    -2
  9
$DIMTMOVE
 70
     0
  9
$LUNITS
 70
     2
  9
$LUPREC
 70
     2
  9
$SKETCHINC
 40
1.0
  9
$FILLETRAD
 40
10.0
  9
$AUNITS
 70
     0
  9
$AUPREC
 70
     2
  9
$MENU
  1
.
  9
$ELEVATION
 40
0.0
  9
$PELEVATION
 40
0.0
  9
$THICKNESS
 40
0.0
  9
$LIMCHECK
 70
     0
  9
$CHAMFERA
 40
0.0
  9
$CHAMFERB
 40
0.0
  9
$CHAMFERC
 40
0.0
  9
$CHAMFERD
 40
0.0
  9
$SKPOLY
 70
     0
  9
$TDCREATE
 40
2459741.592448692
  9
$TDUCREATE
 40
2459741.467448692
  9
$TDUPDATE
 40
2459741.592450648
  9
$TDUUPDATE
 40
2459741.467450648
  9
$TDINDWG
 40
0.0000000116
  9
$TDUSRTIMER
 40
0.0000000116
  9
$USRTIMER
 70
     1
  9
$ANGBASE
 50
0.0
  9
$ANGDIR
 70
     0
  9
$PDMODE
 70
     0
  9
$PDSIZE
 40
-1.0
  9
$PLINEWID
 40
0.0
  9
$SPLFRAME
 70
     0
  9
$SPLINETYPE
 70
     6
  9
$SPLINESEGS
 70
     8
  9
$HANDSEED
  5
162
  9
$SURFTAB1
 70
     6
  9
$SURFTAB2
 70
     6
  9
$SURFTYPE
 70
     6
  9
$SURFU
 70
     6
  9
$SURFV
 70
     6
  9
$UCSBASE
  2

  9
$UCSNAME
  2

  9
$UCSORG
 10
0.0
 20
0.0
 30
0.0
  9
$UCSXDIR
 10
1.0
 20
0.0
 30
0.0
  9
$UCSYDIR
 10
0.0
 20
1.0
 30
0.0
  9
$UCSORTHOREF
  2

  9
$UCSORTHOVIEW
 70
     0
  9
$UCSORGTOP
 10
0.0
 20
0.0
 30
0.0
  9
$UCSORGBOTTOM
 10
0.0
 20
0.0
 30
0.0
  9
$UCSORGLEFT
 10
0.0
 20
0.0
 30
0.0
  9
$UCSORGRIGHT
 10
0.0
 20
0.0
 30
0.0
  9
$UCSORGFRONT
 10
0.0
 20
0.0
 30
0.0
  9
$UCSORGBACK
 10
0.0
 20
0.0
 30
0.0
  9
$PUCSBASE
  2

  9
$PUCSNAME
  2

  9
$PUCSORG
 10
0.0
 20
0.0
 30
0.0
  9
$PUCSXDIR
 10
1.0
 20
0.0
 30
0.0
  9
$PUCSYDIR
 10
0.0
 20
1.0
 30
0.0
  9
$PUCSORTHOREF
  2

  9
$PUCSORTHOVIEW
 70
     0
  9
$PUCSORGTOP
 10
0.0
 20
0.0
 30
0.0
  9
$PUCSORGBOTTOM
 10
0.0
 20
0.0
 30
0.0
  9
$PUCSORGLEFT
 10
0.0
 20
0.0
 30
0.0
  9
$PUCSORGRIGHT
 10
0.0
 20
0.0
 30
0.0
  9
$PUCSORGFRONT
 10
0.0
 20
0.0
 30
0.0
  9
$PUCSORGBACK
 10
0.0
 20
0.0
 30
0.0
  9
$USERI1
 70
     0
  9
$USERI2
 70
     0
  9
$USERI3
 70
     0
  9
$USERI4
 70
     0
  9
$USERI5
 70
     0
  9
$USERR1
 40
0.0
  9
$USERR2
 40
0.0
  9
$USERR3
 40
0.0
  9
$USERR4
 40
0.0
  9
$USERR5
 40
0.0
  9
$WORLDVIEW
 70
     1
  9
$SHADEDGE
 70
     3
  9
$SHADEDIF
 70
    70
  9
$TILEMODE
 70
     1
  9
$MAXACTVP
 70
    64
  9
$PINSBASE
 10
0.0
 20
0.0
 30
0.0
  9
$PLIMCHECK
 70
     0
  9
$PEXTMIN
 10
1.0000000000E+20
 20
1.0000000000E+20
 30
1.0000000000E+20
  9
$PEXTMAX
 10
-1.0000000000E+20
 20
-1.0000000000E+20
 30
-1.0000000000E+20
  9
$PLIMMIN
 10
0.0
 20
0.0
  9
$PLIMMAX
 10
420.0
 20
297.0
  9
$UNITMODE
 70
     0
  9
$VISRETAIN
 70
     1
  9
$PLINEGEN
 70
     0
  9
$PSLTSCALE
 70
     1
  9
$TREEDEPTH
 70
  3020
  9
$CMLSTYLE
  2
Standard
  9
$CMLJUST
 70
     0
  9
$CMLSCALE
 40
20.0
  9
$PROXYGRAPHICS
 70
     1
  9
$MEASUREMENT
 70
     1
  9
$CELWEIGHT
370
    -1
  9
$ENDCAPS
280
     0
  9
$JOINSTYLE
280
     0
  9
$LWDISPLAY
290
     1
  9
$INSUNITS
 70
     4
  9
$HYPERLINKBASE
  1

  9
$STYLESHEET
  1

  9
$XEDIT
290
     1
  9
$CEPSNTYPE
380
     0
  9
$PSTYLEMODE
290
     1
  9
$FINGERPRINTGUID
  2
{10cbb51f-ea45-4f1b-927c-c8ba6fa08eba}
  9
$VERSIONGUID
  2
{FAEB1C32-E019-11D5-929B-00C0DF256EC4}
  9
$EXTNAMES
290
     1
  9
$PSVPSCALE
 40
0.0
  9
$OLESTARTUP
290
     0
  0
ENDSEC
  0
SECTION
  2
CLASSES
  0
CLASS
  1
ACDBDICTIONARYWDFLT
  2
AcDbDictionaryWithDefault
  3
ObjectDBX Classes
 90
        0
280
     0
281
     0
  0
CLASS
  1
VISUALSTYLE
  2
AcDbVisualStyle
  3
ObjectDBX Classes
 90
     4095
280
     0
281
     0
  0
CLASS
  1
MATERIAL
  2
AcDbMaterial
  3
ObjectDBX Classes
 90
     1153
280
     0
281
     0
  0
CLASS
  1
SCALE
  2
AcDbScale
  3
ObjectDBX Classes
 90
     1153
280
     0
281
     0
  0
CLASS
  1
TABLESTYLE
  2
AcDbTableStyle
  3
ObjectDBX Classes
 90
     4095
280
     0
281
     0
  0
CLASS
  1
MLEADERSTYLE
  2
AcDbMLeaderStyle
  3
ACDB_MLEADERSTYLE_CLASS
 90
     4095
280
     0
281
     0
  0
CLASS
  1
SUN
  2
AcDbSun
  3
SCENEOE
 90
     1153
280
     0
281
     0
  0
CLASS
  1
ACDBPLACEHOLDER
  2
AcDbPlaceHolder
  3
ObjectDBX Classes
 90
        0
280
     0
281
     0
  0
CLASS
  1
LAYOUT
  2
AcDbLayout
  3
ObjectDBX Classes
 90
        0
280
     0
281
     0
  0
ENDSEC
  0
SECTION
  2
TABLES
  0
TABLE
  2
VPORT
  5
8
330
0
100
AcDbSymbolTable
 70
     1
  0
VPORT
  5
29
330
8
100
AcDbSymbolTableRecord
100
AcDbViewportTableRecord
  2
*Active
 70
     0
 10
0.0
 20
0.0
 11
1.0
 21
1.0
 12
139.7
 22
107.95
 13
0.0
 23
0.0
 14
10.0
 24
10.0
 15
10.0
 25
10.0
 16
0.0
 26
0.0
 36
1.0
 17
0.0
 27
0.0
 37
0.0
 40
215.9
 41
1.2941176471
 42
50.0
 43
0.0
 44
0.0
 50
0.0
 51
0.0
 71
     0
 72
  2000
 73
     1
 74
     3
 75
     0
 76
     0
 77
     0
 78
     0
281
     0
 65
     1
110
0.0
120
0.0
130
0.0
111
1.0
121
0.0
131
0.0
112
0.0
122
1.0
132
0.0
 79
     0
146
0.0
  0
ENDTAB
  0
TABLE
  2
LTYPE
  5
5
330
0
100
AcDbSymbolTable
 70
     6
  0
LTYPE
  5
14
330
5
100
AcDbSymbolTableRecord
100
AcDbLinetypeTableRecord
  2
ByBlock
 70
     0
  3

 72
    65
 73
     0
 40
0.0
  0
LTYPE
  5
15
330
5
100
AcDbSymbolTableRecord
100
AcDbLinetypeTableRecord
  2
ByLayer
 70
     0
  3

 72
    65
 73
     0
 40
0.0
  0
LTYPE
  5
16
330
5
100
AcDbSymbolTableRecord
100
AcDbLinetypeTableRecord
  2
Continuous
 70
     0
  3
Solid line
 72
    65
 73
     0
 40
0.0
  0
LTYPE
  5
6E
330
5
100
AcDbSymbolTableRecord
100
AcDbLinetypeTableRecord
  2
HIDDEN
 70
     0
  3
Hidden __ __ __ __ __ __ __ __ __ __ __ __ __ __
 72
    65
 73
     2
 40
1.905
 49
1.27
 74
     0
 49
-0.635
 74
     0
  0
LTYPE
  5
6F
330
5
100
AcDbSymbolTableRecord
100
AcDbLinetypeTableRecord
  2
PHANTOM
 70
     0
  3
Phantom ______  __  __  ______  __  __  ______
 72
    65
 73
     6
 40
12.7
 49
6.35
 74
     0
 49
-1.27
 74
     0
 49
1.27
 74
     0
 49
-1.27
 74
     0
 49
1.27
 74
     0
 49
-1.27
 74
     0
  0
LTYPE
  5
70
330
5
100
AcDbSymbolTableRecord
100
AcDbLinetypeTableRecord
  2
CENTER
 70
     0
  3
Center ____ _ ____ _ ____ _ ____ _ ____ _ ____
 72
    65
 73
     4
 40
10.16
 49
6.35
 74
     0
 49
-1.27
 74
     0
 49
1.27
 74
     0
 49
-1.27
 74
     0
  0
LTYPE
  5
71
330
5
100
AcDbSymbolTableRecord
100
AcDbLinetypeTableRecord
  2
CENTERX2
 70
     0
  3
Center (2x) ________  __  ________  __  _____
 72
    65
 73
     4
 40
20.32
 49
12.7
 74
     0
 49
-2.54
 74
     0
 49
2.54
 74
     0
 49
-2.54
 74
     0
  0
LTYPE
  5
72
330
5
100
AcDbSymbolTableRecord
100
AcDbLinetypeTableRecord
  2
DOT2
 70
     0
  3
Dot (.5x) ........................................
 72
    65
 73
     2
 40
0.635
 49
0.0
 74
     0
 49
-0.635
 74
     0
  0
ENDTAB
  0
TABLE
  2
LAYER
  5
2
330
0
100
AcDbSymbolTable
 70
    17
  0
LAYER
  5
10
330
2
100
AcDbSymbolTableRecord
100
AcDbLayerTableRecord
  2
0
 70
     0
 62
     7
  6
Continuous
370
    -3
390
F
  0
LAYER
  5
73
330
2
100
AcDbSymbolTableRecord
100
AcDbLayerTableRecord
  2
FORMAT
 70
     0
 62
     7
  6
Continuous
370
    -3
390
F
  0
LAYER
  5
74
330
2
100
AcDbSymbolTableRecord
100
AcDbLayerTableRecord
  2
YARDIMCI_GEOMETRI
 70
     0
 62
    -6
  6
Continuous
290
     0
370
    -3
390
F
  0
LAYER
  5
75
330
2
100
AcDbSymbolTableRecord
100
AcDbLayerTableRecord
  2
SAYFA_CERCEVESI
 70
     0
 62
     7
  6
Continuous
370
    25
390
F
  0
LAYER
  5
76
330
2
100
AcDbSymbolTableRecord
100
AcDbLayerTableRecord
  2
ANTET
 70
     0
 62
     7
  6
Continuous
370
    -3
390
F
  0
LAYER
  5
77
330
2
100
AcDbSymbolTableRecord
100
AcDbLayerTableRecord
  2
OLCU
 70
     0
 62
   150
  6
Continuous
370
    -3
390
F
  0
LAYER
  5
78
330
2
100
AcDbSymbolTableRecord
100
AcDbLayerTableRecord
  2
METIN
 70
     0
 62
    96
  6
Continuous
370
    -3
390
F
  0
LAYER
  5
79
330
2
100
AcDbSymbolTableRecord
100
AcDbLayerTableRecord
  2
BALON
 70
     0
 62
     5
  6
Continuous
370
    -3
390
F
  0
LAYER
  5
7A
330
2
100
AcDbSymbolTableRecord
100
AcDbLayerTableRecord
  2
VURGU
 70
     0
 62
     7
  6
Continuous
370
    -3
390
F
  0
LAYER
  5
7B
330
2
100
AcDbSymbolTableRecord
100
AcDbLayerTableRecord
  2
SILIK
 70
     0
 62
     7
  6
Continuous
370
    -3
390
F
  0
LAYER
  5
7C
330
2
100
AcDbSymbolTableRecord
100
AcDbLayerTableRecord
  2
MODEL
 70
     0
 62
     7
  6
Continuous
370
    -3
390
F
  0
LAYER
  5
7D
330
2
100
AcDbSymbolTableRecord
100
AcDbLayerTableRecord
  2
DETAYLANDıRMA
 70
     0
 62
   190
  6
Continuous
370
    -3
390
F
  0
LAYER
  5
7E
330
2
100
AcDbSymbolTableRecord
100
AcDbLayerTableRecord
  2
TOLERANS
 70
     0
 62
   230
  6
Continuous
370
    -3
390
F
  0
LAYER
  5
7F
330
2
100
AcDbSymbolTableRecord
100
AcDbLayerTableRecord
  2
MERKEZ_CIZGILERI
 70
     0
 62
    30
  6
Continuous
370
    -3
390
F
  0
LAYER
  5
80
330
2
100
AcDbSymbolTableRecord
100
AcDbLayerTableRecord
  2
KESIT-DETAY_CIZGILERI
 70
     0
 62
     7
  6
Continuous
370
    -3
390
F
  0
LAYER
  5
81
330
2
100
AcDbSymbolTableRecord
100
AcDbLayerTableRecord
  2
\U+041E\U+0421\U+0415\U+0412\U+042B\U+0415
 70
     0
 62
     7
  6
Continuous
370
    -3
390
F
  0
LAYER
  5
82
330
2
100
AcDbSymbolTableRecord
100
AcDbLayerTableRecord
  2
\U+0412\U+041E\U+0414\U+042F\U+041D\U+042B\U+0415_\U+0417\U+041D\U+0410\U+041A\U+0418
 70
     0
 62
    11
  6
Continuous
370
    -3
390
F
  0
ENDTAB
  0
TABLE
  2
STYLE
  5
3
330
0
100
AcDbSymbolTable
 70
     1
  0
STYLE
  5
11
330
3
100
AcDbSymbolTableRecord
100
AcDbTextStyleTableRecord
  2
Standard
 70
     0
 40
0.0
 41
1.0
 50
0.0
 71
     0
 42
3.5
  3
txt
  4

  0
ENDTAB
  0
TABLE
  2
VIEW
  5
6
330
0
100
AcDbSymbolTable
 70
     0
  0
ENDTAB
  0
TABLE
  2
UCS
  5
7
330
0
100
AcDbSymbolTable
 70
     0
  0
ENDTAB
  0
TABLE
  2
APPID
  5
9
330
0
100
AcDbSymbolTable
 70
     1
  0
APPID
  5
12
330
9
100
AcDbSymbolTableRecord
100
AcDbRegAppTableRecord
  2
ACAD
 70
     0
  0
ENDTAB
  0
TABLE
  2
DIMSTYLE
  5
A
330
0
100
AcDbSymbolTable
 70
     1
100
AcDbDimStyleTable
  0
DIMSTYLE
105
27
330
A
100
AcDbSymbolTableRecord
100
AcDbDimStyleTableRecord
  2
ISO-25
 70
     0
 41
2.5
 42
0.625
 43
3.75
 44
1.25
 73
     0
 74
     0
 77
     1
 78
     8
140
2.5
141
2.5
143
0.0393700787
147
0.625
171
     3
172
     1
178
     0
271
     2
272
     2
274
     3
278
    44
283
     0
284
     8
340
11
  0
ENDTAB
  0
TABLE
  2
BLOCK_RECORD
  5
1
330
0
100
AcDbSymbolTable
 70
     9
  0
BLOCK_RECORD
  5
1F
330
1
100
AcDbSymbolTableRecord
100
AcDbBlockTableRecord
  2
*Model_Space
340
22
  0
BLOCK_RECORD
  5
1B
330
1
100
AcDbSymbolTableRecord
100
AcDbBlockTableRecord
  2
*Paper_Space
340
1E
  0
BLOCK_RECORD
  5
23
330
1
100
AcDbSymbolTableRecord
100
AcDbBlockTableRecord
  2
*Paper_Space0
340
26
  0
BLOCK_RECORD
  5
97
330
1
100
AcDbSymbolTableRecord
100
AcDbBlockTableRecord
  2
SW_CENTERMARKSYMBOL_0
340
0
102
{BLKREFS
331
A2
102
}
  0
BLOCK_RECORD
  5
A3
330
1
100
AcDbSymbolTableRecord
100
AcDbBlockTableRecord
  2
SW_CENTERMARKSYMBOL_1
340
0
102
{BLKREFS
331
AE
102
}
  0
BLOCK_RECORD
  5
AF
330
1
100
AcDbSymbolTableRecord
100
AcDbBlockTableRecord
  2
SW_CENTERMARKSYMBOL_2
340
0
102
{BLKREFS
331
BA
102
}
  0
BLOCK_RECORD
  5
BB
330
1
100
AcDbSymbolTableRecord
100
AcDbBlockTableRecord
  2
SW_CENTERMARKSYMBOL_3
340
0
102
{BLKREFS
331
C6
102
}
  0
BLOCK_RECORD
  5
C7
330
1
100
AcDbSymbolTableRecord
100
AcDbBlockTableRecord
  2
SW_CENTERMARKSYMBOL_4
340
0
102
{BLKREFS
331
D2
102
}
  0
BLOCK_RECORD
  5
D3
330
1
100
AcDbSymbolTableRecord
100
AcDbBlockTableRecord
  2
SW_CENTERMARKSYMBOL_5
340
0
102
{BLKREFS
331
DE
102
}
  0
BLOCK_RECORD
  5
DF
330
1
100
AcDbSymbolTableRecord
100
AcDbBlockTableRecord
  2
SW_CENTERMARKSYMBOL_6
340
0
102
{BLKREFS
331
EA
102
}
  0
BLOCK_RECORD
  5
EB
330
1
100
AcDbSymbolTableRecord
100
AcDbBlockTableRecord
  2
SW_CENTERMARKSYMBOL_7
340
0
102
{BLKREFS
331
F6
102
}
  0
ENDTAB
  0
ENDSEC
  0
SECTION
  2
BLOCKS
  0
BLOCK
  5
20
330
1F
100
AcDbEntity
  8
0
100
AcDbBlockBegin
  2
*Model_Space
 70
     0
 10
0.0
 20
0.0
 30
0.0
  3
*Model_Space
  1

  0
ENDBLK
  5
21
330
1F
100
AcDbEntity
  8
0
100
AcDbBlockEnd
  0
BLOCK
  5
1C
330
1B
100
AcDbEntity
 67
     1
  8
0
100
AcDbBlockBegin
  2
*Paper_Space
 70
     0
 10
0.0
 20
0.0
 30
0.0
  3
*Paper_Space
  1

  0
ENDBLK
  5
1D
330
1B
100
AcDbEntity
 67
     1
  8
0
100
AcDbBlockEnd
  0
BLOCK
  5
24
330
23
100
AcDbEntity
  8
0
100
AcDbBlockBegin
  2
*Paper_Space0
 70
     0
 10
0.0
 20
0.0
 30
0.0
  3
*Paper_Space0
  1

  0
ENDBLK
  5
25
330
23
100
AcDbEntity
  8
0
100
AcDbBlockEnd
  0
BLOCK
  5
98
330
97
100
AcDbEntity
  8
0
100
AcDbBlockBegin
  2
SW_CENTERMARKSYMBOL_0
 70
     0
 10
0.0
 20
0.0
 30
0.0
  3
SW_CENTERMARKSYMBOL_0
  1

  0
LINE
  5
9A
330
97
100
AcDbEntity
  8
FORMAT
 62
     0
100
AcDbLine
 10
0.0
 20
0.0
 30
0.0
 11
0.0
 21
2.5
 31
0.0
  0
LINE
  5
9B
330
97
100
AcDbEntity
  8
FORMAT
 62
     0
100
AcDbLine
 10
0.0
 20
0.0
 30
0.0
 11
-2.5
 21
0.0
 31
0.0
  0
LINE
  5
9C
330
97
100
AcDbEntity
  8
FORMAT
 62
     0
100
AcDbLine
 10
0.0
 20
0.0
 30
0.0
 11
0.0
 21
-2.5
 31
0.0
  0
LINE
  5
9D
330
97
100
AcDbEntity
  8
FORMAT
 62
     0
100
AcDbLine
 10
0.0
 20
0.0
 30
0.0
 11
2.5
 21
0.0
 31
0.0
  0
LINE
  5
9E
330
97
100
AcDbEntity
  8
FORMAT
 62
     0
100
AcDbLine
 10
0.0
 20
5.0
 30
0.0
 11
0.0
 21
104.5
 31
0.0
  0
LINE
  5
9F
330
97
100
AcDbEntity
  8
FORMAT
 62
     0
100
AcDbLine
 10
-5.0
 20
0.0
 30
0.0
 11
-104.5
 21
0.0
 31
0.0
  0
LINE
  5
A0
330
97
100
AcDbEntity
  8
FORMAT
 62
     0
100
AcDbLine
 10
0.0
 20
-5.0
 30
0.0
 11
0.0
 21
-104.5
 31
0.0
  0
LINE
  5
A1
330
97
100
AcDbEntity
  8
FORMAT
 62
     0
100
AcDbLine
 10
5.0
 20
0.0
 30
0.0
 11
104.5
 21
0.0
 31
0.0
  0
ENDBLK
  5
99
330
97
100
AcDbEntity
  8
0
100
AcDbBlockEnd
  0
BLOCK
  5
A4
330
A3
100
AcDbEntity
  8
0
100
AcDbBlockBegin
  2
SW_CENTERMARKSYMBOL_1
 70
     0
 10
0.0
 20
0.0
 30
0.0
  3
SW_CENTERMARKSYMBOL_1
  1

  0
LINE
  5
A6
330
A3
100
AcDbEntity
  8
FORMAT
 62
     0
100
AcDbLine
 10
0.0
 20
0.0
 30
0.0
 11
0.0
 21
2.5
 31
0.0
  0
LINE
  5
A7
330
A3
100
AcDbEntity
  8
FORMAT
 62
     0
100
AcDbLine
 10
0.0
 20
0.0
 30
0.0
 11
-2.5
 21
0.0
 31
0.0
  0
LINE
  5
A8
330
A3
100
AcDbEntity
  8
FORMAT
 62
     0
100
AcDbLine
 10
0.0
 20
0.0
 30
0.0
 11
0.0
 21
-2.5
 31
0.0
  0
LINE
  5
A9
330
A3
100
AcDbEntity
  8
FORMAT
 62
     0
100
AcDbLine
 10
0.0
 20
0.0
 30
0.0
 11
2.5
 21
0.0
 31
0.0
  0
LINE
  5
AA
330
A3
100
AcDbEntity
  8
FORMAT
 62
     0
100
AcDbLine
 10
0.0
 20
5.0
 30
0.0
 11
0.0
 21
11.5
 31
0.0
  0
LINE
  5
AB
330
A3
100
AcDbEntity
  8
FORMAT
 62
     0
100
AcDbLine
 10
-5.0
 20
0.0
 30
0.0
 11
-11.5
 21
0.0
 31
0.0
  0
LINE
  5
AC
330
A3
100
AcDbEntity
  8
FORMAT
 62
     0
100
AcDbLine
 10
0.0
 20
-5.0
 30
0.0
 11
0.0
 21
-11.5
 31
0.0
  0
LINE
  5
AD
330
A3
100
AcDbEntity
  8
FORMAT
 62
     0
100
AcDbLine
 10
5.0
 20
0.0
 30
0.0
 11
11.5
 21
0.0
 31
0.0
  0
ENDBLK
  5
A5
330
A3
100
AcDbEntity
  8
0
100
AcDbBlockEnd
  0
BLOCK
  5
B0
330
AF
100
AcDbEntity
  8
0
100
AcDbBlockBegin
  2
SW_CENTERMARKSYMBOL_2
 70
     0
 10
0.0
 20
0.0
 30
0.0
  3
SW_CENTERMARKSYMBOL_2
  1

  0
LINE
  5
B2
330
AF
100
AcDbEntity
  8
FORMAT
 62
     0
100
AcDbLine
 10
0.0
 20
0.0
 30
0.0
 11
0.0
 21
2.5
 31
0.0
  0
LINE
  5
B3
330
AF
100
AcDbEntity
  8
FORMAT
 62
     0
100
AcDbLine
 10
0.0
 20
0.0
 30
0.0
 11
-2.5
 21
0.0
 31
0.0
  0
LINE
  5
B4
330
AF
100
AcDbEntity
  8
FORMAT
 62
     0
100
AcDbLine
 10
0.0
 20
0.0
 30
0.0
 11
0.0
 21
-2.5
 31
0.0
  0
LINE
  5
B5
330
AF
100
AcDbEntity
  8
FORMAT
 62
     0
100
AcDbLine
 10
0.0
 20
0.0
 30
0.0
 11
2.5
 21
0.0
 31
0.0
  0
LINE
  5
B6
330
AF
100
AcDbEntity
  8
FORMAT
 62
     0
100
AcDbLine
 10
0.0
 20
5.0
 30
0.0
 11
0.0
 21
11.5
 31
0.0
  0
LINE
  5
B7
330
AF
100
AcDbEntity
  8
FORMAT
 62
     0
100
AcDbLine
 10
-5.0
 20
0.0
 30
0.0
 11
-11.5
 21
0.0
 31
0.0
  0
LINE
  5
B8
330
AF
100
AcDbEntity
  8
FORMAT
 62
     0
100
AcDbLine
 10
0.0
 20
-5.0
 30
0.0
 11
0.0
 21
-11.5
 31
0.0
  0
LINE
  5
B9
330
AF
100
AcDbEntity
  8
FORMAT
 62
     0
100
AcDbLine
 10
5.0
 20
0.0
 30
0.0
 11
11.5
 21
0.0
 31
0.0
  0
ENDBLK
  5
B1
330
AF
100
AcDbEntity
  8
0
100
AcDbBlockEnd
  0
BLOCK
  5
BC
330
BB
100
AcDbEntity
  8
0
100
AcDbBlockBegin
  2
SW_CENTERMARKSYMBOL_3
 70
     0
 10
0.0
 20
0.0
 30
0.0
  3
SW_CENTERMARKSYMBOL_3
  1

  0
LINE
  5
BE
330
BB
100
AcDbEntity
  8
FORMAT
 62
     0
100
AcDbLine
 10
0.0
 20
0.0
 30
0.0
 11
0.0
 21
2.5
 31
0.0
  0
LINE
  5
BF
330
BB
100
AcDbEntity
  8
FORMAT
 62
     0
100
AcDbLine
 10
0.0
 20
0.0
 30
0.0
 11
-2.5
 21
0.0
 31
0.0
  0
LINE
  5
C0
330
BB
100
AcDbEntity
  8
FORMAT
 62
     0
100
AcDbLine
 10
0.0
 20
0.0
 30
0.0
 11
0.0
 21
-2.5
 31
0.0
  0
LINE
  5
C1
330
BB
100
AcDbEntity
  8
FORMAT
 62
     0
100
AcDbLine
 10
0.0
 20
0.0
 30
0.0
 11
2.5
 21
0.0
 31
0.0
  0
LINE
  5
C2
330
BB
100
AcDbEntity
  8
FORMAT
 62
     0
100
AcDbLine
 10
0.0
 20
5.0
 30
0.0
 11
0.0
 21
11.5
 31
0.0
  0
LINE
  5
C3
330
BB
100
AcDbEntity
  8
FORMAT
 62
     0
100
AcDbLine
 10
-5.0
 20
0.0
 30
0.0
 11
-11.5
 21
0.0
 31
0.0
  0
LINE
  5
C4
330
BB
100
AcDbEntity
  8
FORMAT
 62
     0
100
AcDbLine
 10
0.0
 20
-5.0
 30
0.0
 11
0.0
 21
-11.5
 31
0.0
  0
LINE
  5
C5
330
BB
100
AcDbEntity
  8
FORMAT
 62
     0
100
AcDbLine
 10
5.0
 20
0.0
 30
0.0
 11
11.5
 21
0.0
 31
0.0
  0
ENDBLK
  5
BD
330
BB
100
AcDbEntity
  8
0
100
AcDbBlockEnd
  0
BLOCK
  5
C8
330
C7
100
AcDbEntity
  8
0
100
AcDbBlockBegin
  2
SW_CENTERMARKSYMBOL_4
 70
     0
 10
0.0
 20
0.0
 30
0.0
  3
SW_CENTERMARKSYMBOL_4
  1

  0
LINE
  5
CA
330
C7
100
AcDbEntity
  8
FORMAT
 62
     0
100
AcDbLine
 10
0.0
 20
0.0
 30
0.0
 11
0.0
 21
2.5
 31
0.0
  0
LINE
  5
CB
330
C7
100
AcDbEntity
  8
FORMAT
 62
     0
100
AcDbLine
 10
0.0
 20
0.0
 30
0.0
 11
-2.5
 21
0.0
 31
0.0
  0
LINE
  5
CC
330
C7
100
AcDbEntity
  8
FORMAT
 62
     0
100
AcDbLine
 10
0.0
 20
0.0
 30
0.0
 11
0.0
 21
-2.5
 31
0.0
  0
LINE
  5
CD
330
C7
100
AcDbEntity
  8
FORMAT
 62
     0
100
AcDbLine
 10
0.0
 20
0.0
 30
0.0
 11
2.5
 21
0.0
 31
0.0
  0
LINE
  5
CE
330
C7
100
AcDbEntity
  8
FORMAT
 62
     0
100
AcDbLine
 10
0.0
 20
5.0
 30
0.0
 11
0.0
 21
11.5
 31
0.0
  0
LINE
  5
CF
330
C7
100
AcDbEntity
  8
FORMAT
 62
     0
100
AcDbLine
 10
-5.0
 20
0.0
 30
0.0
 11
-11.5
 21
0.0
 31
0.0
  0
LINE
  5
D0
330
C7
100
AcDbEntity
  8
FORMAT
 62
     0
100
AcDbLine
 10
0.0
 20
-5.0
 30
0.0
 11
0.0
 21
-11.5
 31
0.0
  0
LINE
  5
D1
330
C7
100
AcDbEntity
  8
FORMAT
 62
     0
100
AcDbLine
 10
5.0
 20
0.0
 30
0.0
 11
11.5
 21
0.0
 31
0.0
  0
ENDBLK
  5
C9
330
C7
100
AcDbEntity
  8
0
100
AcDbBlockEnd
  0
BLOCK
  5
D4
330
D3
100
AcDbEntity
  8
0
100
AcDbBlockBegin
  2
SW_CENTERMARKSYMBOL_5
 70
     0
 10
0.0
 20
0.0
 30
0.0
  3
SW_CENTERMARKSYMBOL_5
  1

  0
LINE
  5
D6
330
D3
100
AcDbEntity
  8
FORMAT
 62
     0
100
AcDbLine
 10
0.0
 20
0.0
 30
0.0
 11
0.0
 21
2.5
 31
0.0
  0
LINE
  5
D7
330
D3
100
AcDbEntity
  8
FORMAT
 62
     0
100
AcDbLine
 10
0.0
 20
0.0
 30
0.0
 11
-2.5
 21
0.0
 31
0.0
  0
LINE
  5
D8
330
D3
100
AcDbEntity
  8
FORMAT
 62
     0
100
AcDbLine
 10
0.0
 20
0.0
 30
0.0
 11
0.0
 21
-2.5
 31
0.0
  0
LINE
  5
D9
330
D3
100
AcDbEntity
  8
FORMAT
 62
     0
100
AcDbLine
 10
0.0
 20
0.0
 30
0.0
 11
2.5
 21
0.0
 31
0.0
  0
LINE
  5
DA
330
D3
100
AcDbEntity
  8
FORMAT
 62
     0
100
AcDbLine
 10
0.0
 20
5.0
 30
0.0
 11
0.0
 21
12.5
 31
0.0
  0
LINE
  5
DB
330
D3
100
AcDbEntity
  8
FORMAT
 62
     0
100
AcDbLine
 10
-5.0
 20
0.0
 30
0.0
 11
-12.5
 21
0.0
 31
0.0
  0
LINE
  5
DC
330
D3
100
AcDbEntity
  8
FORMAT
 62
     0
100
AcDbLine
 10
0.0
 20
-5.0
 30
0.0
 11
0.0
 21
-12.5
 31
0.0
  0
LINE
  5
DD
330
D3
100
AcDbEntity
  8
FORMAT
 62
     0
100
AcDbLine
 10
5.0
 20
0.0
 30
0.0
 11
12.5
 21
0.0
 31
0.0
  0
ENDBLK
  5
D5
330
D3
100
AcDbEntity
  8
0
100
AcDbBlockEnd
  0
BLOCK
  5
E0
330
DF
100
AcDbEntity
  8
0
100
AcDbBlockBegin
  2
SW_CENTERMARKSYMBOL_6
 70
     0
 10
0.0
 20
0.0
 30
0.0
  3
SW_CENTERMARKSYMBOL_6
  1

  0
LINE
  5
E2
330
DF
100
AcDbEntity
  8
FORMAT
 62
     0
100
AcDbLine
 10
0.0
 20
0.0
 30
0.0
 11
0.0
 21
2.5
 31
0.0
  0
LINE
  5
E3
330
DF
100
AcDbEntity
  8
FORMAT
 62
     0
100
AcDbLine
 10
0.0
 20
0.0
 30
0.0
 11
-2.5
 21
0.0
 31
0.0
  0
LINE
  5
E4
330
DF
100
AcDbEntity
  8
FORMAT
 62
     0
100
AcDbLine
 10
0.0
 20
0.0
 30
0.0
 11
0.0
 21
-2.5
 31
0.0
  0
LINE
  5
E5
330
DF
100
AcDbEntity
  8
FORMAT
 62
     0
100
AcDbLine
 10
0.0
 20
0.0
 30
0.0
 11
2.5
 21
0.0
 31
0.0
  0
LINE
  5
E6
330
DF
100
AcDbEntity
  8
FORMAT
 62
     0
100
AcDbLine
 10
0.0
 20
5.0
 30
0.0
 11
0.0
 21
12.5
 31
0.0
  0
LINE
  5
E7
330
DF
100
AcDbEntity
  8
FORMAT
 62
     0
100
AcDbLine
 10
-5.0
 20
0.0
 30
0.0
 11
-12.5
 21
0.0
 31
0.0
  0
LINE
  5
E8
330
DF
100
AcDbEntity
  8
FORMAT
 62
     0
100
AcDbLine
 10
0.0
 20
-5.0
 30
0.0
 11
0.0
 21
-12.5
 31
0.0
  0
LINE
  5
E9
330
DF
100
AcDbEntity
  8
FORMAT
 62
     0
100
AcDbLine
 10
5.0
 20
0.0
 30
0.0
 11
12.5
 21
0.0
 31
0.0
  0
ENDBLK
  5
E1
330
DF
100
AcDbEntity
  8
0
100
AcDbBlockEnd
  0
BLOCK
  5
EC
330
EB
100
AcDbEntity
  8
0
100
AcDbBlockBegin
  2
SW_CENTERMARKSYMBOL_7
 70
     0
 10
0.0
 20
0.0
 30
0.0
  3
SW_CENTERMARKSYMBOL_7
  1

  0
LINE
  5
EE
330
EB
100
AcDbEntity
  8
FORMAT
 62
     0
100
AcDbLine
 10
0.0
 20
0.0
 30
0.0
 11
0.0
 21
2.5
 31
0.0
  0
LINE
  5
EF
330
EB
100
AcDbEntity
  8
FORMAT
 62
     0
100
AcDbLine
 10
0.0
 20
0.0
 30
0.0
 11
-2.5
 21
0.0
 31
0.0
  0
LINE
  5
F0
330
EB
100
AcDbEntity
  8
FORMAT
 62
     0
100
AcDbLine
 10
0.0
 20
0.0
 30
0.0
 11
0.0
 21
-2.5
 31
0.0
  0
LINE
  5
F1
330
EB
100
AcDbEntity
  8
FORMAT
 62
     0
100
AcDbLine
 10
0.0
 20
0.0
 30
0.0
 11
2.5
 21
0.0
 31
0.0
  0
LINE
  5
F2
330
EB
100
AcDbEntity
  8
FORMAT
 62
     0
100
AcDbLine
 10
0.0
 20
5.0
 30
0.0
 11
0.0
 21
12.5
 31
0.0
  0
LINE
  5
F3
330
EB
100
AcDbEntity
  8
FORMAT
 62
     0
100
AcDbLine
 10
-5.0
 20
0.0
 30
0.0
 11
-12.5
 21
0.0
 31
0.0
  0
LINE
  5
F4
330
EB
100
AcDbEntity
  8
FORMAT
 62
     0
100
AcDbLine
 10
0.0
 20
-5.0
 30
0.0
 11
0.0
 21
-12.5
 31
0.0
  0
LINE
  5
F5
330
EB
100
AcDbEntity
  8
FORMAT
 62
     0
100
AcDbLine
 10
5.0
 20
0.0
 30
0.0
 11
12.5
 21
0.0
 31
0.0
  0
ENDBLK
  5
ED
330
EB
100
AcDbEntity
  8
0
100
AcDbBlockEnd
  0
ENDSEC
  0
SECTION
  2
ENTITIES
  0
CIRCLE
  5
83
330
1F
100
AcDbEntity
  8
0
  6
Continuous
 62
     7
370
    25
100
AcDbCircle
 10
57.8667640332
 20
106.2789640447
 30
0.0
 40
10.0
  0
CIRCLE
  5
84
330
1F
100
AcDbEntity
  8
0
  6
Continuous
 62
     7
370
    25
100
AcDbCircle
 10
194.4353065281
 20
49.7104215498
 30
0.0
 40
10.00000000000003
  0
CIRCLE
  5
85
330
1F
100
AcDbEntity
  8
0
  6
Continuous
 62
     7
370
    25
100
AcDbCircle
 10
194.4353065281
 20
162.8475065396
 30
0.0
 40
9.999999999999972
  0
CIRCLE
  5
86
330
1F
100
AcDbEntity
  8
0
  6
Continuous
 62
     7
370
    25
100
AcDbCircle
 10
137.8667640332
 20
186.2789640447
 30
0.0
 40
9.999999999999972
  0
CIRCLE
  5
87
330
1F
100
AcDbEntity
  8
0
  6
Continuous
 62
     7
370
    25
100
AcDbCircle
 10
137.8667640332
 20
106.2789640447
 30
0.0
 40
101.0
  0
CIRCLE
  5
88
330
1F
100
AcDbEntity
  8
0
  6
Continuous
 62
     7
370
    25
100
AcDbCircle
 10
137.8667640332
 20
106.2789640447
 30
0.0
 40
55.0
  0
CIRCLE
  5
89
330
1F
100
AcDbEntity
  8
0
  6
Continuous
 62
     7
370
    25
100
AcDbCircle
 10
137.8667640332
 20
26.2789640447
 30
0.0
 40
10.00000000000003
  0
CIRCLE
  5
8A
330
1F
100
AcDbEntity
  8
0
  6
Continuous
 62
     7
370
    25
100
AcDbCircle
 10
217.8667640332
 20
106.2789640447
 30
0.0
 40
10.0
  0
CIRCLE
  5
8B
330
1F
100
AcDbEntity
  8
0
  6
Continuous
 62
     7
370
    25
100
AcDbCircle
 10
81.2982215382
 20
49.7104215498
 30
0.0
 40
10.0
  0
CIRCLE
  5
8C
330
1F
100
AcDbEntity
  8
0
  6
Continuous
 62
     7
370
    25
100
AcDbCircle
 10
81.2982215383
 20
162.8475065396
 30
0.0
 40
10.0
  0
CIRCLE
  5
8D
330
1F
100
AcDbEntity
  8
0
  6
Continuous
 62
     7
370
    25
100
AcDbCircle
 10
137.8667640332
 20
26.2789640447
 30
0.0
 40
9.000000000000028
  0
CIRCLE
  5
8E
330
1F
100
AcDbEntity
  8
0
  6
Continuous
 62
     7
370
    25
100
AcDbCircle
 10
137.8667640332
 20
106.2789640447
 30
0.0
 40
54.0
  0
CIRCLE
  5
8F
330
1F
100
AcDbEntity
  8
0
  6
Continuous
 62
     7
370
    25
100
AcDbCircle
 10
137.8667640332
 20
106.2789640447
 30
0.0
 40
102.0
  0
CIRCLE
  5
90
330
1F
100
AcDbEntity
  8
0
  6
Continuous
 62
     7
370
    25
100
AcDbCircle
 10
137.8667640332
 20
186.2789640447
 30
0.0
 40
9.0
  0
CIRCLE
  5
91
330
1F
100
AcDbEntity
  8
0
  6
Continuous
 62
     7
370
    25
100
AcDbCircle
 10
194.4353065281
 20
162.8475065396
 30
0.0
 40
8.999999999999972
  0
CIRCLE
  5
92
330
1F
100
AcDbEntity
  8
0
  6
Continuous
 62
     7
370
    25
100
AcDbCircle
 10
81.2982215383
 20
162.8475065396
 30
0.0
 40
9.0
  0
CIRCLE
  5
93
330
1F
100
AcDbEntity
  8
0
  6
Continuous
 62
     7
370
    25
100
AcDbCircle
 10
81.2982215382
 20
49.7104215498
 30
0.0
 40
9.0
  0
CIRCLE
  5
94
330
1F
100
AcDbEntity
  8
0
  6
Continuous
 62
     7
370
    25
100
AcDbCircle
 10
217.8667640332
 20
106.2789640447
 30
0.0
 40
9.0
  0
CIRCLE
  5
95
330
1F
100
AcDbEntity
  8
0
  6
Continuous
 62
     7
370
    25
100
AcDbCircle
 10
57.8667640332
 20
106.2789640447
 30
0.0
 40
9.0
  0
CIRCLE
  5
96
330
1F
100
AcDbEntity
  8
0
  6
Continuous
 62
     7
370
    25
100
AcDbCircle
 10
194.4353065281
 20
49.7104215498
 30
0.0
 40
9.000000000000028
  0
INSERT
  5
A2
330
1F
100
AcDbEntity
  8
FORMAT
 62
     7
100
AcDbBlockReference
  2
SW_CENTERMARKSYMBOL_0
 10
137.8667640332
 20
106.2789640447
 30
0.0
  0
INSERT
  5
AE
330
1F
100
AcDbEntity
  8
FORMAT
 62
     7
100
AcDbBlockReference
  2
SW_CENTERMARKSYMBOL_1
 10
137.8667640332
 20
186.2789640447
 30
0.0
  0
INSERT
  5
BA
330
1F
100
AcDbEntity
  8
FORMAT
 62
     7
100
AcDbBlockReference
  2
SW_CENTERMARKSYMBOL_2
 10
194.4353065281
 20
162.8475065396
 30
0.0
  0
INSERT
  5
C6
330
1F
100
AcDbEntity
  8
FORMAT
 62
     7
100
AcDbBlockReference
  2
SW_CENTERMARKSYMBOL_3
 10
217.8667640332
 20
106.2789640447
 30
0.0
  0
INSERT
  5
D2
330
1F
100
AcDbEntity
  8
FORMAT
 62
     7
100
AcDbBlockReference
  2
SW_CENTERMARKSYMBOL_4
 10
194.4353065281
 20
49.7104215498
 30
0.0
  0
INSERT
  5
DE
330
1F
100
AcDbEntity
  8
FORMAT
 62
     7
100
AcDbBlockReference
  2
SW_CENTERMARKSYMBOL_5
 10
81.2982215383
 20
162.8475065396
 30
0.0
  0
INSERT
  5
EA
330
1F
100
AcDbEntity
  8
FORMAT
 62
     7
100
AcDbBlockReference
  2
SW_CENTERMARKSYMBOL_6
 10
57.8667640332
 20
106.2789640447
 30
0.0
  0
INSERT
  5
F6
330
1F
100
AcDbEntity
  8
FORMAT
 62
     7
100
AcDbBlockReference
  2
SW_CENTERMARKSYMBOL_7
 10
81.2982215382
 20
49.7104215498
 30
0.0
  0
LINE
  5
F7
330
1F
100
AcDbEntity
  8
0
  6
Continuous
 62
     7
370
    25
100
AcDbLine
 10
-130.3138330133
 20
208.2789640447
 30
0.0
 11
-148.3138330133
 21
208.2789640447
 31
0.0
  0
LINE
  5
F8
330
1F
100
AcDbEntity
  8
0
  6
Continuous
 62
     7
370
    25
100
AcDbLine
 10
-148.3138330133
 20
4.2789640447
 30
0.0
 11
-130.3138330133
 21
4.2789640447
 31
0.0
  0
ARC
  5
F9
330
1F
100
AcDbEntity
  8
0
  6
Continuous
 62
     7
370
    25
100
AcDbCircle
 10
-130.3138330133
 20
5.2789640447
 30
0.0
 40
1.000000000000001
100
AcDbArc
 50
270.0
 51
0.0
  0
ARC
  5
FA
330
1F
100
AcDbEntity
  8
0
  6
Continuous
 62
     7
370
    25
100
AcDbCircle
 10
-130.3138330133
 20
207.2789640447
 30
0.0
 40
1.0
100
AcDbArc
 50
0.0
 51
90.0
  0
ARC
  5
FB
330
1F
100
AcDbEntity
  8
0
  6
Continuous
 62
     7
370
    25
100
AcDbCircle
 10
-148.3138330133
 20
5.2789640447
 30
0.0
 40
1.000000000000001
100
AcDbArc
 50
180.0
 51
270.0
  0
ARC
  5
FC
330
1F
100
AcDbEntity
  8
0
  6
Continuous
 62
     7
370
    25
100
AcDbCircle
 10
-148.3138330133
 20
207.2789640447
 30
0.0
 40
1.0
100
AcDbArc
 50
90.0
 51
180.0
  0
LINE
  5
FD
330
1F
100
AcDbEntity
  8
0
  6
Continuous
 62
     7
370
    25
100
AcDbLine
 10
-129.3138330133
 20
106.2789640447
 30
0.0
 11
-129.3138330133
 21
5.2789640447
 31
0.0
  0
LINE
  5
FE
330
1F
100
AcDbEntity
  8
0
  6
Continuous
 62
     7
370
    25
100
AcDbLine
 10
-129.3138330133
 20
207.2789640447
 30
0.0
 11
-129.3138330133
 21
106.2789640447
 31
0.0
  0
LINE
  5
FF
330
1F
100
AcDbEntity
  8
0
  6
Continuous
 62
     7
370
    25
100
AcDbLine
 10
-149.3138330133
 20
106.2789640447
 30
0.0
 11
-149.3138330133
 21
207.2789640447
 31
0.0
  0
LINE
  5
100
330
1F
100
AcDbEntity
  8
0
  6
Continuous
 62
     7
370
    25
100
AcDbLine
 10
-149.3138330133
 20
5.2789640447
 30
0.0
 11
-149.3138330133
 21
106.2789640447
 31
0.0
  0
LINE
  5
101
330
1F
100
AcDbEntity
  8
0
  6
Continuous
 62
     1
370
    25
100
AcDbLine
 10
-148.3138330133
 20
106.2789640447
 30
0.0
 11
-148.3138330133
 21
4.2789640447
 31
0.0
  0
LINE
  5
102
330
1F
100
AcDbEntity
  8
0
  6
Continuous
 62
     1
370
    25
100
AcDbLine
 10
-148.3138330133
 20
208.2789640447
 30
0.0
 11
-148.3138330133
 21
106.2789640447
 31
0.0
  0
LINE
  5
103
330
1F
100
AcDbEntity
  8
0
  6
Continuous
 62
     1
370
    25
100
AcDbLine
 10
-130.3138330133
 20
106.2789640447
 30
0.0
 11
-130.3138330133
 21
208.2789640447
 31
0.0
  0
LINE
  5
104
330
1F
100
AcDbEntity
  8
0
  6
Continuous
 62
     1
370
    25
100
AcDbLine
 10
-130.3138330133
 20
4.2789640447
 30
0.0
 11
-130.3138330133
 21
106.2789640447
 31
0.0
  0
LINE
  5
105
330
1F
100
AcDbEntity
  8
0
  6
Continuous
 62
     7
370
    25
100
AcDbLine
 10
381.4720641302
 20
4.2789640447
 30
0.0
 11
399.4720641302
 21
4.2789640447
 31
0.0
  0
LINE
  5
106
330
1F
100
AcDbEntity
  8
0
  6
Continuous
 62
     7
370
    25
100
AcDbLine
 10
399.4720641302
 20
208.2789640447
 30
0.0
 11
381.4720641302
 21
208.2789640447
 31
0.0
  0
ARC
  5
107
330
1F
100
AcDbEntity
  8
0
  6
Continuous
 62
     7
370
    25
100
AcDbCircle
 10
381.4720641302
 20
207.2789640447
 30
0.0
 40
1.0
100
AcDbArc
 50
90.0
 51
180.0
  0
ARC
  5
108
330
1F
100
AcDbEntity
  8
0
  6
Continuous
 62
     7
370
    25
100
AcDbCircle
 10
381.4720641302
 20
5.2789640447
 30
0.0
 40
1.000000000000001
100
AcDbArc
 50
180.0
 51
270.0
  0
ARC
  5
109
330
1F
100
AcDbEntity
  8
0
  6
Continuous
 62
     7
370
    25
100
AcDbCircle
 10
399.4720641302
 20
207.2789640447
 30
0.0
 40
1.0
100
AcDbArc
 50
0.0
 51
90.0
  0
ARC
  5
10A
330
1F
100
AcDbEntity
  8
0
  6
Continuous
 62
     7
370
    25
100
AcDbCircle
 10
399.4720641302
 20
5.2789640447
 30
0.0
 40
1.000000000000001
100
AcDbArc
 50
270.0
 51
0.0
  0
LINE
  5
10B
330
1F
100
AcDbEntity
  8
0
  6
Continuous
 62
     7
370
    25
100
AcDbLine
 10
380.4720641302
 20
5.2789640447
 30
0.0
 11
380.4720641302
 21
207.2789640447
 31
0.0
  0
LINE
  5
10C
330
1F
100
AcDbEntity
  8
0
  6
Continuous
 62
     7
370
    25
100
AcDbLine
 10
400.4720641302
 20
207.2789640447
 30
0.0
 11
400.4720641302
 21
5.2789640447
 31
0.0
  0
LINE
  5
10D
330
1F
100
AcDbEntity
  8
0
  6
Continuous
 62
     1
370
    25
100
AcDbLine
 10
399.4720641302
 20
4.2789640447
 30
0.0
 11
399.4720641302
 21
208.2789640447
 31
0.0
  0
LINE
  5
10E
330
1F
100
AcDbEntity
  8
0
  6
Continuous
 62
     1
370
    25
100
AcDbLine
 10
381.4720641302
 20
208.2789640447
 30
0.0
 11
381.4720641302
 21
4.2789640447
 31
0.0
  0
LINE
  5
10F
330
1F
100
AcDbEntity
  8
0
  6
Continuous
 62
     7
370
    25
100
AcDbLine
 10
239.8667640332
 20
291.8522865542
 30
0.0
 11
239.8667640332
 21
309.8522865542
 31
0.0
  0
LINE
  5
110
330
1F
100
AcDbEntity
  8
0
  6
Continuous
 62
     7
370
    25
100
AcDbLine
 10
35.8667640332
 20
309.8522865542
 30
0.0
 11
35.8667640332
 21
291.8522865542
 31
0.0
  0
ARC
  5
111
330
1F
100
AcDbEntity
  8
0
  6
Continuous
 62
     7
370
    25
100
AcDbCircle
 10
36.8667640332
 20
291.8522865542
 30
0.0
 40
1.0
100
AcDbArc
 50
180.0
 51
270.0
  0
ARC
  5
112
330
1F
100
AcDbEntity
  8
0
  6
Continuous
 62
     7
370
    25
100
AcDbCircle
 10
238.8667640332
 20
291.8522865542
 30
0.0
 40
1.0
100
AcDbArc
 50
270.0
 51
0.0
  0
ARC
  5
113
330
1F
100
AcDbEntity
  8
0
  6
Continuous
 62
     7
370
    25
100
AcDbCircle
 10
36.8667640332
 20
309.8522865542
 30
0.0
 40
1.0
100
AcDbArc
 50
90.0
 51
180.0
  0
ARC
  5
114
330
1F
100
AcDbEntity
  8
0
  6
Continuous
 62
     7
370
    25
100
AcDbCircle
 10
238.8667640332
 20
309.8522865542
 30
0.0
 40
1.0
100
AcDbArc
 50
0.0
 51
90.0
  0
LINE
  5
115
330
1F
100
AcDbEntity
  8
0
  6
Continuous
 62
     7
370
    25
100
AcDbLine
 10
238.8667640332
 20
290.8522865542
 30
0.0
 11
36.8667640332
 21
290.8522865542
 31
0.0
  0
LINE
  5
116
330
1F
100
AcDbEntity
  8
0
  6
Continuous
 62
     7
370
    25
100
AcDbLine
 10
36.8667640332
 20
310.8522865542
 30
0.0
 11
238.8667640332
 21
310.8522865542
 31
0.0
  0
LINE
  5
117
330
1F
100
AcDbEntity
  8
0
  6
Continuous
 62
     1
370
    25
100
AcDbLine
 10
239.8667640332
 20
309.8522865542
 30
0.0
 11
35.8667640332
 21
309.8522865542
 31
0.0
  0
LINE
  5
118
330
1F
100
AcDbEntity
  8
0
  6
Continuous
 62
     1
370
    25
100
AcDbLine
 10
35.8667640332
 20
291.8522865542
 30
0.0
 11
239.8667640332
 21
291.8522865542
 31
0.0
  0
LINE
  5
119
330
1F
100
AcDbEntity
  8
0
  6
Continuous
 62
     7
370
    25
100
AcDbLine
 10
35.8667640332
 20
-145.638288103
 30
0.0
 11
35.8667640332
 21
-163.638288103
 31
0.0
  0
LINE
  5
11A
330
1F
100
AcDbEntity
  8
0
  6
Continuous
 62
     7
370
    25
100
AcDbLine
 10
239.8667640332
 20
-163.638288103
 30
0.0
 11
239.8667640332
 21
-145.638288103
 31
0.0
  0
ARC
  5
11B
330
1F
100
AcDbEntity
  8
0
  6
Continuous
 62
     7
370
    25
100
AcDbCircle
 10
238.8667640332
 20
-145.638288103
 30
0.0
 40
1.0
100
AcDbArc
 50
0.0
 51
90.0
  0
ARC
  5
11C
330
1F
100
AcDbEntity
  8
0
  6
Continuous
 62
     7
370
    25
100
AcDbCircle
 10
36.8667640332
 20
-145.638288103
 30
0.0
 40
1.0
100
AcDbArc
 50
90.0
 51
180.0
  0
ARC
  5
11D
330
1F
100
AcDbEntity
  8
0
  6
Continuous
 62
     7
370
    25
100
AcDbCircle
 10
238.8667640332
 20
-163.638288103
 30
0.0
 40
1.0
100
AcDbArc
 50
270.0
 51
0.0
  0
ARC
  5
11E
330
1F
100
AcDbEntity
  8
0
  6
Continuous
 62
     7
370
    25
100
AcDbCircle
 10
36.8667640332
 20
-163.638288103
 30
0.0
 40
1.0
100
AcDbArc
 50
180.0
 51
270.0
  0
LINE
  5
11F
330
1F
100
AcDbEntity
  8
0
  6
Continuous
 62
     7
370
    25
100
AcDbLine
 10
36.8667640332
 20
-144.638288103
 30
0.0
 11
238.8667640332
 21
-144.638288103
 31
0.0
  0
LINE
  5
120
330
1F
100
AcDbEntity
  8
0
  6
Continuous
 62
     7
370
    25
100
AcDbLine
 10
238.8667640332
 20
-164.638288103
 30
0.0
 11
36.8667640332
 21
-164.638288103
 31
0.0
  0
LINE
  5
121
330
1F
100
AcDbEntity
  8
0
  6
Continuous
 62
     1
370
    25
100
AcDbLine
 10
35.8667640332
 20
-163.638288103
 30
0.0
 11
239.8667640332
 21
-163.638288103
 31
0.0
  0
LINE
  5
122
330
1F
100
AcDbEntity
  8
0
  6
Continuous
 62
     1
370
    25
100
AcDbLine
 10
239.8667640332
 20
-145.638288103
 30
0.0
 11
35.8667640332
 21
-145.638288103
 31
0.0
  0
SPLINE
  5
123
330
1F
100
AcDbEntity
  8
0
  6
Continuous
 62
     7
370
    25
100
AcDbSpline
210
0.0
220
0.0
230
1.0
 70
     8
 71
     3
 72
    77
 73
    73
 74
     0
 42
0.00000001
 43
0.00000001
 40
0.0
 40
0.0
 40
0.0
 40
0.0
 40
0.0038202363042882
 40
0.0183364075096216
 40
0.0328662625891036
 40
0.047411719646798
 40
0.0619735865736144
 40
0.076551673116139
 40
0.0911449878126095
 40
0.1057519739031427
 40
0.1203707436228689
 40
0.1349992821561112
 40
0.1496356061271271
 40
0.1642778731870299
 40
0.1789244472473704
 40
0.1935739280552344
 40
0.2082251549142828
 40
0.2228771935500546
 40
0.237529163139447
 40
0.2521805101675507
 40
0.2668308741810507
 40
0.2814800095502804
 40
0.296127763137874
 40
0.3107740551911348
 40
0.3254188633909679
 40
0.3400622097955387
 40
0.3547041503264474
 40
0.3693447664218599
 40
0.3839841584962098
 40
0.3986224408807031
 40
0.4132597379611038
 40
0.4278961812723224
 40
0.4425319073492191
 40
0.4571670561681537
 40
0.4718017700432912
 40
0.4864361928658616
 40
0.5010704695934488
 40
0.5157047459106582
 40
0.5303391359505896
 40
0.5449737695633372
 40
0.5596087934090208
 40
0.574244354036981
 40
0.5888805974912389
 40
0.6035176687193304
 40
0.6181557106977278
 40
0.6327948631731456
 40
0.6474352608977108
 40
0.6620770312091936
 40
0.6767202907749351
 40
0.6913651412798903
 40
0.7060116637960336
 40
0.7206599115247354
 40
0.7353099005599077
 40
0.7499615982860679
 40
0.7646149090158484
 40
0.7792696565073977
 40
0.793925563116793
 40
0.8085822255800929
 40
0.823238957787395
 40
0.837894863670013
 40
0.8525489203164772
 40
0.8671998633524839
 40
0.8818461760399481
 40
0.8964860979836617
 40
0.9111176631951189
 40
0.9257387777781294
 40
0.9403473456657974
 40
0.9549414454793062
 40
0.9695195519867001
 40
0.984080782377374
 40
0.9986251331677719
 40
1.0
 40
1.0
 40
1.0
 40
1.0
 10
416.353292548112
 20
-34.46508277071561
 30
0.0
 10
416.1417055504056
 20
-34.39912061771064
 30
0.0
 10
415.1261282131279
 20
-34.08251483174048
 30
0.0
 10
413.2325468947873
 20
-33.67563121402374
 30
0.0
 10
410.67512855032
 20
-33.250980657201
 30
0.0
 10
408.0461411029809
 20
-33.00147426294912
 30
0.0
 10
405.3574753107721
 20
-32.91169854160687
 30
0.0
 10
402.6118141725763
 20
-32.98630091040894
 30
0.0
 10
399.8145474292914
 20
-33.22416092472218
 30
0.0
 10
396.9705423866066
 20
-33.62529377393957
 30
0.0
 10
394.084970802473
 20
-34.1889820473606
 30
0.0
 10
391.1630453778288
 20
-34.91427435940102
 30
0.0
 10
388.2100519878265
 20
-35.79985891114595
 30
0.0
 10
385.231308545186
 20
-36.84411150055715
 30
0.0
 10
382.2321504934176
 20
-38.04510020100975
 30
0.0
 10
379.2179156800549
 20
-39.40060255098344
 30
0.0
 10
376.1939347152834
 20
-40.90811856934691
 30
0.0
 10
373.1655340496858
 20
-42.56487751102336
 30
0.0
 10
370.138020127894
 20
-44.36785186490362
 30
0.0
 10
367.1166714352302
 20
-46.31376865627031
 30
0.0
 10
364.1067242497524
 20
-48.39912582991407
 30
0.0
 10
361.1133789864782
 20
-50.62019400319205
 30
0.0
 10
358.1417986584813
 20
-52.97302070940422
 30
0.0
 10
355.1971031335938
 20
-55.45343667816078
 30
0.0
 10
352.2843628590789
 20
-58.05706217910278
 30
0.0
 10
349.4085921178715
 20
-60.77931357474723
 30
0.0
 10
346.5747418997183
 20
-63.61541018226885
 30
0.0
 10
343.7876924769087
 20
-66.56038150717767
 30
0.0
 10
341.0522457725042
 20
-69.60907488357864
 30
0.0
 10
338.3731176027506
 20
-72.75616353476619
 30
0.0
 10
335.7549298671474
 20
-75.99615505287284
 30
0.0
 10
333.202202750975
 20
-79.32340028577013
 30
0.0
 10
330.7193469967646
 20
-82.73210261225374
 30
0.0
 10
328.3106562937152
 20
-86.2163275817652
 30
0.0
 10
325.9802998275639
 20
-89.77001289175105
 30
0.0
 10
323.7323150278534
 20
-93.38697867382281
 30
0.0
 10
321.5706005451612
 20
-97.06093805808044
 30
0.0
 10
319.4989109982388
 20
-100.7855052671887
 30
0.0
 10
317.5208494241529
 20
-104.5542077868423
 30
0.0
 10
315.6398601494102
 20
-108.360499014767
 30
0.0
 10
313.8592217114394
 20
-112.1977725455068
 30
0.0
 10
312.1820422835718
 20
-116.0593724358234
 30
0.0
 10
310.6112552915487
 20
-119.9386033306521
 30
0.0
 10
309.14961465676
 20
-123.8287420569082
 30
0.0
 10
307.7996904290448
 20
-127.7230492131581
 30
0.0
 10
306.5638648188114
 20
-131.6147807082663
 30
0.0
 10
305.4443286340023
 20
-135.4971991980333
 30
0.0
 10
304.4430781219982
 20
-139.3635853636567
 30
0.0
 10
303.5619122091377
 20
-143.2072489701056
 30
0.0
 10
302.8024301205155
 20
-147.0215396363866
 30
0.0
 10
302.1660293492461
 20
-150.7998572437431
 30
0.0
 10
301.6539039265617
 20
-154.5356619029491
 30
0.0
 10
301.2670429209199
 20
-158.2224833995036
 30
0.0
 10
301.0062290649499
 20
-161.8539300379303
 30
0.0
 10
300.8720373728682
 20
-165.4236968169773
 30
0.0
 10
300.8648335691885
 20
-168.9255728904777
 30
0.0
 10
300.984772101459
 20
-172.3534483119718
 30
0.0
 10
301.2317927405439
 20
-175.7013102227172
 30
0.0
 10
301.605614602515
 20
-178.9632477788789
 30
0.0
 10
302.1057296936227
 20
-182.1334656074884
 30
0.0
 10
302.7313974302506
 20
-185.206299377034
 30
0.0
 10
303.4816384119626
 20
-188.1762232576263
 30
0.0
 10
304.3552217881989
 20
-191.0378564468042
 30
0.0
 10
305.3506630797711
 20
-193.7859651590666
 30
0.0
 10
306.466184319699
 20
-196.4155244266028
 30
0.0
 10
307.6998197546317
 20
-198.9215787672547
 30
0.0
 10
309.0489936404469
 20
-201.2998768898823
 30
0.0
 10
310.5120925035454
 20
-203.5446437480914
 30
0.0
 10
312.082644323726
 20
-205.6570349240187
 30
0.0
 10
313.7710939235591
 20
-207.6137876834531
 30
0.0
 10
314.9954500969411
 20
-208.9203207516062
 30
0.0
 10
315.6849712066151
 20
-209.5310550181162
 30
0.0
 10
315.744521853279
 20
-209.5838012212422
 30
0.0
  0
LINE
  5
124
330
1F
100
AcDbEntity
  8
0
  6
Continuous
 62
     7
370
    25
100
AcDbLine
 10
437.0150886685
 20
-45.151582105
 30
0.0
 11
424.2871666071
 21
-37.8039090986
 31
0.0
  0
LINE
  5
125
330
1F
100
AcDbEntity
  8
0
  6
Continuous
 62
     7
370
    25
100
AcDbLine
 10
322.2954558782
 20
-214.4778770243
 30
0.0
 11
335.0233779396
 21
-221.8255500307
 31
0.0
  0
SPLINE
  5
126
330
1F
100
AcDbEntity
  8
0
  6
Continuous
 62
     7
370
    25
100
AcDbSpline
210
0.0
220
0.0
230
1.0
 70
     8
 71
     3
 72
    61
 73
    57
 74
     0
 42
0.00000001
 43
0.00000001
 40
0.0
 40
0.0
 40
0.0
 40
0.0
 40
0.0043811751737347
 40
0.0231456050053876
 40
0.0419274531688458
 40
0.0607293203166509
 40
0.0795523665260163
 40
0.0983964444972339
 40
0.1172603472903591
 40
0.1361421112778297
 40
0.1550393208564753
 40
0.1739493763483644
 40
0.1928697041223603
 40
0.2117979033997052
 40
0.2307318349652844
 40
0.249669662748167
 40
0.2686098609411138
 40
0.2875511984388352
 40
0.306492535006142
 40
0.3254331131616743
 40
0.3443724531704965
 40
0.3633102263159156
 40
0.3822462256920673
 40
0.4011803411549528
 40
0.4201125383730736
 40
0.4390428416543435
 40
0.4579713200996933
 40
0.4768980765981172
 40
0.4958232391943975
 40
0.5147469544041062
 40
0.5336693821047009
 40
0.5525906916873193
 40
0.5715110592059058
 40
0.5904306653062258
 40
0.6093496937561055
 40
0.6282683304300245
 40
0.6471867626261165
 40
0.6661051786126025
 40
0.6850237311227282
 40
0.703942582760336
 40
0.7228619231142309
 40
0.7417819416643375
 40
0.760702827287882
 40
0.7796247675204617
 40
0.798547947460512
 40
0.8174725481889773
 40
0.8363987445490203
 40
0.8553267020965292
 40
0.8742565729907862
 40
0.8931884905457594
 40
0.9121225621072143
 40
0.9310588598618449
 40
0.9499974091275412
 40
0.9689381736287067
 40
0.9878810372446282
 40
1.0
 40
1.0
 40
1.0
 40
1.0
 10
342.8268158191632
 20
-225.1280435558959
 30
0.0
 10
343.0140805094214
 20
-225.1874948398428
 30
0.0
 10
344.0033937371048
 20
-225.5015740265295
 30
0.0
 10
345.8683812300424
 20
-225.9116776599929
 30
0.0
 10
348.4198824771154
 20
-226.3503049184832
 30
0.0
 10
351.0436456703091
 20
-226.6132067656611
 30
0.0
 10
353.7273782072177
 20
-226.7165924403567
 30
0.0
 10
356.4685254813421
 20
-226.6555707571889
 30
0.0
 10
359.2616818296924
 20
-226.431294426958
 30
0.0
 10
362.1019997292962
 20
-226.0437045528887
 30
0.0
 10
364.9843141640355
 20
-225.4934944566278
 30
0.0
 10
367.9034192823347
 20
-224.7815863690214
 30
0.0
 10
370.8540330341453
 20
-223.9092652096135
 30
0.0
 10
373.8308397055109
 20
-222.8781290348792
 30
0.0
 10
376.8285046264654
 20
-221.6900849517607
 30
0.0
 10
379.841689746993
 20
-220.3473317658712
 30
0.0
 10
382.8650635447557
 20
-218.8523468972735
 30
0.0
 10
385.8932991540194
 20
-217.2078788899466
 30
0.0
 10
388.921087998476
 20
-215.4169344275805
 30
0.0
 10
391.9431491162717
 20
-213.4827664272639
 30
0.0
 10
394.9542424202964
 20
-211.4088583558828
 30
0.0
 10
397.949164628179
 20
-209.1989207717225
 30
0.0
 10
400.922749407436
 20
-206.8568878419348
 30
0.0
 10
403.8698730725735
 20
-204.3869110593451
 30
0.0
 10
406.7854608182726
 20
-201.7933529102234
 30
0.0
 10
409.6644934272175
 20
-199.0807803431981
 30
0.0
 10
412.5020143703499
 20
-196.2539579359938
 30
0.0
 10
415.2931372099991
 20
-193.3178406943178
 30
0.0
 10
418.0330532176243
 20
-190.2775664461582
 30
0.0
 10
420.717039123866
 20
-187.1384478162456
 30
0.0
 10
423.3404649267123
 20
-183.9059637809001
 30
0.0
 10
425.8988016922704
 20
-180.5857508143314
 30
0.0
 10
428.3876292909887
 20
-177.1835936448713
 30
0.0
 10
430.8026440197443
 20
-173.7054156445566
 30
0.0
 10
433.1396660667854
 20
-170.1572688787487
 30
0.0
 10
435.3946467821584
 20
-166.5453238445019
 30
0.0
 10
437.5636757207354
 20
-162.8758589281586
 30
0.0
 10
439.6429861035597
 20
-159.1552519849433
 30
0.0
 10
441.6289619804456
 20
-155.389968859805
 30
0.0
 10
443.5181456060743
 20
-151.5865504328188
 30
0.0
 10
445.3072444039732
 20
-147.7515987015526
 30
0.0
 10
446.9931359041606
 20
-143.8917658133181
 30
0.0
 10
448.5728719733988
 20
-140.0137442886113
 30
0.0
 10
450.0436835962369
 20
-136.1242554333242
 30
0.0
 10
451.4029853030926
 20
-132.2300377308487
 30
0.0
 10
452.6483790667954
 20
-128.3378353575137
 30
0.0
 10
453.7776582905026
 20
-124.4543865107175
 30
0.0
 10
454.7888095393106
 20
-120.5864129536996
 30
0.0
 10
455.6800207827598
 20
-116.7406058060205
 30
0.0
 10
456.4496634647961
 20
-112.9236264310294
 30
0.0
 10
457.0963704875857
 20
-109.1420523806647
 30
0.0
 10
457.6187545573571
 20
-105.4025301857814
 30
0.0
 10
458.0164675745037
 20
-101.7111581899959
 30
0.0
 10
458.2862532812728
 20
-98.07574592298859
 30
0.0
 10
458.4186189670113
 20
-94.92714949351186
 30
0.0
 10
458.4318543411616
 20
-93.0085210988158
 30
0.0
 10
458.4370182038548
 20
-92.25995642078358
 30
0.0
  0
SPLINE
  5
127
330
1F
100
AcDbEntity
  8
0
  6
Continuous
 62
     7
370
    25
100
AcDbSpline
210
0.0
220
0.0
230
1.0
 70
     8
 71
     3
 72
    24
 73
    20
 74
     0
 42
0.00000001
 43
0.00000001
 40
0.0
 40
0.0
 40
0.0
 40
0.0
 40
0.0338035394900562
 40
0.0979914804421376
 40
0.1621871078204972
 40
0.2263827117784541
 40
0.2905743622536946
 40
0.3547574943000633
 40
0.4189264790525377
 40
0.4830745816575166
 40
0.5471940083867516
 40
0.6112760860928976
 40
0.675311618760736
 40
0.73929145677794
 40
0.8032072896013456
 40
0.8670526289488811
 40
0.930823890589275
 40
0.9945214201102303
 40
1.0
 40
1.0
 40
1.0
 40
1.0
 10
458.4370182038548
 20
-92.25995642078358
 30
0.0
 10
458.4334727446263
 20
-91.64808582163658
 30
0.0
 10
458.423194980703
 20
-89.87436310638456
 30
0.0
 10
458.3090036326653
 20
-86.9951578165982
 30
0.0
 10
458.0527978362427
 20
-83.65354790836437
 30
0.0
 10
457.6680930085698
 20
-80.39921302403016
 30
0.0
 10
457.1576098740723
 20
-77.23682127799577
 30
0.0
 10
456.5215223983312
 20
-74.17234567817724
 30
0.0
 10
455.7609873769438
 20
-71.21121476664685
 30
0.0
 10
454.8772148285577
 20
-68.35881991074092
 30
0.0
 10
453.8717225018387
 20
-65.62037512226095
 30
0.0
 10
452.7463083530919
 20
-63.00089108838041
 30
0.0
 10
451.5029612647901
 20
-60.50530691037022
 30
0.0
 10
450.14428294529
 20
-58.13784744468946
 30
0.0
 10
448.6718972439111
 20
-55.90428843130915
 30
0.0
 10
447.0923402473171
 20
-53.80336058600778
 30
0.0
 10
445.395021376184
 20
-51.8586271907367
 30
0.0
 10
444.1700042443052
 20
-50.56528826102844
 30
0.0
 10
443.4830094309475
 20
-49.9636150336768
 30
0.0
 10
443.4286011099115
 20
-49.91596397507202
 30
0.0
  0
SPLINE
  5
128
330
1F
100
AcDbEntity
  8
0
  6
Continuous
 62
     7
370
    25
100
AcDbSpline
210
0.0
220
0.0
230
1.0
 70
     8
 71
     3
 72
    14
 73
    10
 74
     0
 42
0.00000001
 43
0.00000001
 40
0.0
 40
0.0
 40
0.0
 40
0.0
 40
0.0791203369604901
 40
0.2742985693216177
 40
0.4423349447147877
 40
0.6211063478830186
 40
0.7937407169123533
 40
0.9537434589302842
 40
1.0
 40
1.0
 40
1.0
 40
1.0
 10
417.7120648484839
 20
-141.4237853960491
 30
0.0
 10
417.7908056502281
 20
-141.4606468092005
 30
0.0
 10
418.0637884267858
 20
-141.5884399061342
 30
0.0
 10
418.4223265413821
 20
-141.9416329409618
 30
0.0
 10
418.8113568490662
 20
-142.4972307779541
 30
0.0
 10
419.1024856234845
 20
-143.1827877512357
 30
0.0
 10
419.2923212881139
 20
-143.9927398486031
 30
0.0
 10
419.3575348528719
 20
-144.6736943238464
 30
0.0
 10
419.3614916803771
 20
-145.0691754401705
 30
0.0
 10
419.3623790545173
 20
-145.157867634896
 30
0.0
  0
SPLINE
  5
129
330
1F
100
AcDbEntity
  8
0
  6
Continuous
 62
     7
370
    25
100
AcDbSpline
210
0.0
220
0.0
230
1.0
 70
     8
 71
     3
 72
    25
 73
    21
 74
     0
 42
0.00000001
 43
0.00000001
 40
0.0
 40
0.0
 40
0.0
 40
0.0
 40
0.0296323149404999
 40
0.0865187874861979
 40
0.1436058134241202
 40
0.2008871315683158
 40
0.2583369463171445
 40
0.3159036880374543
 40
0.373526182684723
 40
0.4311360387700473
 40
0.4886497596775171
 40
0.546001774378218
 40
0.6031306387291805
 40
0.6599898901528634
 40
0.7165735534043777
 40
0.7729695411267383
 40
0.829380573098379
 40
0.8862801152376892
 40
0.9446725312628437
 40
1.0
 40
1.0
 40
1.0
 40
1.0
 10
419.3623790545174
 20
-145.157867634896
 30
0.0
 10
419.3592493326951
 20
-145.3308622276713
 30
0.0
 10
419.3501113447326
 20
-145.8359622321306
 30
0.0
 10
419.2465976109871
 20
-146.7324643341184
 30
0.0
 10
419.0119703028092
 20
-147.8470183165457
 30
0.0
 10
418.6608339813236
 20
-148.9931204731858
 30
0.0
 10
418.2006065505446
 20
-150.1452533498233
 30
0.0
 10
417.6390892860513
 20
-151.2797771173499
 30
0.0
 10
416.9874719068932
 20
-152.3728399300289
 30
0.0
 10
416.2592739609007
 20
-153.4016181733844
 30
0.0
 10
415.4702530389267
 20
-154.3448331967513
 30
0.0
 10
414.6380250525885
 20
-155.1833884209484
 30
0.0
 10
413.7816757921989
 20
-155.9009946396132
 30
0.0
 10
412.921444701811
 20
-156.4847040423006
 30
0.0
 10
412.078023014219
 20
-156.9257843531751
 30
0.0
 10
411.2720599564739
 20
-157.2199167279746
 30
0.0
 10
410.521566310528
 20
-157.3694230578608
 30
0.0
 10
409.841694987995
 20
-157.3770202942285
 30
0.0
 10
409.2481171123715
 20
-157.2679674785171
 30
0.0
 10
408.9211174747032
 20
-157.0936580830723
 30
0.0
 10
408.7620242583499
 20
-157.0088523549692
 30
0.0
  0
SPLINE
  5
12A
330
1F
100
AcDbEntity
  8
0
  6
Continuous
 62
     7
370
    25
100
AcDbSpline
210
0.0
220
0.0
230
1.0
 70
     8
 71
     3
 72
    20
 73
    16
 74
     0
 42
0.00000001
 43
0.00000001
 40
0.0
 40
0.0
 40
0.0
 40
0.0
 40
0.0290504993896929
 40
0.1172537689778818
 40
0.2052037519540411
 40
0.2928722085497737
 40
0.3802686355934586
 40
0.4674273271253811
 40
0.5543942288014664
 40
0.6412169957484469
 40
0.7279389774407444
 40
0.8145964284432229
 40
0.9012178593636964
 40
0.983236446001164
 40
1.0
 40
1.0
 40
1.0
 40
1.0
 10
403.3300504759724
 20
-81.62480420973749
 30
0.0
 10
403.4778138027103
 20
-81.75206677382215
 30
0.0
 10
404.0742168711848
 20
-82.26572456292067
 30
0.0
 10
405.018998585203
 20
-83.31621318010463
 30
0.0
 10
406.1576307844899
 20
-84.77189094328173
 30
0.0
 10
407.1813777216536
 20
-86.37317729828244
 30
0.0
 10
408.0958008792396
 20
-88.10127608352826
 30
0.0
 10
408.8960770599902
 20
-89.95404449613869
 30
0.0
 10
409.5805551047183
 20
-91.92471837421343
 30
0.0
 10
410.1470694939715
 20
-94.00746432219772
 30
0.0
 10
410.5937862923363
 20
-96.19585223389961
 30
0.0
 10
410.91942336516
 20
-98.48295651375992
 30
0.0
 10
411.1181091065599
 20
-100.8201530146607
 30
0.0
 10
411.1787969535248
 20
-102.575011866462
 30
0.0
 10
411.1816927796365
 20
-103.5279536052527
 30
0.0
 10
411.1821842079157
 20
-103.6896699863015
 30
0.0
  0
SPLINE
  5
12B
330
1F
100
AcDbEntity
  8
0
  6
Continuous
 62
     7
370
    25
100
AcDbSpline
210
0.0
220
0.0
230
1.0
 70
     8
 71
     3
 72
    47
 73
    43
 74
     0
 42
0.00000001
 43
0.00000001
 40
0.0
 40
0.0
 40
0.0
 40
0.0
 40
0.0134229937285976
 40
0.0389801926534692
 40
0.0645448342634278
 40
0.0901149714232588
 40
0.1156914346415367
 40
0.1412745034076529
 40
0.1668640658930371
 40
0.1924597387287738
 40
0.2180609542099956
 40
0.2436670224245683
 40
0.2692771745252678
 40
0.2948905920906049
 40
0.3205064264085362
 40
0.3461238106191668
 40
0.3717418669666915
 40
0.3973596377333323
 40
0.4229760120739633
 40
0.4485900995310882
 40
0.4742010112565608
 40
0.4998078656458429
 40
0.5254097981409732
 40
0.5510059771848969
 40
0.5765956289855619
 40
0.6021780745707995
 40
0.6277527836590132
 40
0.6533194511132027
 40
0.6788781030836003
 40
0.704429241114413
 40
0.7299740329381099
 40
0.7555145573551465
 40
0.7810537491938203
 40
0.8065950338407321
 40
0.8321445242365396
 40
0.8577104814649379
 40
0.8833035206316762
 40
0.9089365047942166
 40
0.934623868569526
 40
0.9603800673516325
 40
0.9862169231974043
 40
0.9999999999999999
 40
0.9999999999999999
 40
0.9999999999999999
 40
0.9999999999999999
 10
411.1821842079157
 20
-103.6896699863015
 30
0.0
 10
411.1787438684534
 20
-104.1313238872385
 30
0.0
 10
411.1687531690798
 20
-105.4138808557335
 30
0.0
 10
411.0575173576617
 20
-107.5921982244074
 30
0.0
 10
410.8076623572047
 20
-110.238207945561
 30
0.0
 10
410.4327069435308
 20
-112.9387067700881
 30
0.0
 10
409.9358037050363
 20
-115.6832863987572
 30
0.0
 10
409.3178246859791
 20
-118.4631747737674
 30
0.0
 10
408.5807959431914
 20
-121.2690064572642
 30
0.0
 10
407.7269726266412
 20
-124.0914381754908
 30
0.0
 10
406.7590761277335
 20
-126.921032243392
 30
0.0
 10
405.6802172209641
 20
-129.7483341850178
 30
0.0
 10
404.4939014534982
 20
-132.5638965151701
 30
0.0
 10
403.2040109656867
 20
-135.3583154438581
 30
0.0
 10
401.8147913672619
 20
-138.1222628519344
 30
0.0
 10
400.330836165362
 20
-140.8465184666278
 30
0.0
 10
398.7570723609644
 20
-143.5219985210705
 30
0.0
 10
397.0987473690286
 20
-146.1397816531733
 30
0.0
 10
395.3614077814402
 20
-148.6911475518854
 30
0.0
 10
393.5508791196551
 20
-151.1676092691921
 30
0.0
 10
391.6732425933728
 20
-153.5609466204843
 30
0.0
 10
389.7348202851596
 20
-155.8632273521019
 30
0.0
 10
387.7421547197757
 20
-158.0668354909473
 30
0.0
 10
385.7019874851441
 20
-160.1644993526206
 30
0.0
 10
383.6212367291329
 20
-162.1493192235403
 30
0.0
 10
381.5069732718105
 20
-164.0147947115005
 30
0.0
 10
379.3663949675844
 20
-165.7548517061465
 30
0.0
 10
377.2067988260276
 20
-167.3638687864323
 30
0.0
 10
375.0355502490513
 20
-168.836702755355
 30
0.0
 10
372.8600486357514
 20
-170.1687126424506
 30
0.0
 10
370.6876884055958
 20
-171.3557813144685
 30
0.0
 10
368.5258250257215
 20
-172.3943275552495
 30
0.0
 10
366.3817537030343
 20
-173.2813097889077
 30
0.0
 10
364.2626327701529
 20
-174.0142442732772
 30
0.0
 10
362.1754028947084
 20
-174.5912220615142
 30
0.0
 10
360.1267392090613
 20
-175.0108039629737
 30
0.0
 10
358.1228665420395
 20
-175.2722587065714
 30
0.0
 10
356.1700910104079
 20
-175.374368165056
 30
0.0
 10
354.2726658119114
 20
-175.3195232683128
 30
0.0
 10
352.4408293839172
 20
-175.0979452069125
 30
0.0
 10
350.939746638983
 20
-174.8014682632155
 30
0.0
 10
350.0817894405339
 20
-174.5181101690171
 30
0.0
 10
349.7833212410922
 20
-174.4195348784017
 30
0.0
  0
SPLINE
  5
12C
330
1F
100
AcDbEntity
  8
0
  6
Continuous
 62
     7
370
    25
100
AcDbSpline
210
0.0
220
0.0
230
1.0
 70
     8
 71
     3
 72
    14
 73
    10
 74
     0
 42
0.00000001
 43
0.00000001
 40
0.0
 40
0.0
 40
0.0
 40
0.0
 40
0.0791203369604998
 40
0.2742985693215992
 40
0.4423349447147643
 40
0.6211063478829904
 40
0.7937407169123181
 40
0.9537434589302578
 40
1.0
 40
1.0
 40
1.0
 40
1.0
 10
434.2806073434099
 20
-85.66844579056253
 30
0.0
 10
434.3593481451541
 20
-85.70530720371397
 30
0.0
 10
434.6323309217119
 20
-85.83310030064764
 30
0.0
 10
434.9908690363081
 20
-86.18629333547523
 30
0.0
 10
435.3798993439922
 20
-86.74189117246742
 30
0.0
 10
435.6710281184105
 20
-87.42744814574895
 30
0.0
 10
435.8608637830398
 20
-88.23740024311644
 30
0.0
 10
435.926077347798
 20
-88.91835471835974
 30
0.0
 10
435.9300341753031
 20
-89.31383583468391
 30
0.0
 10
435.9309215494433
 20
-89.40252802940941
 30
0.0
  0
SPLINE
  5
12D
330
1F
100
AcDbEntity
  8
0
  6
Continuous
 62
     7
370
    25
100
AcDbSpline
210
0.0
220
0.0
230
1.0
 70
     8
 71
     3
 72
    25
 73
    21
 74
     0
 42
0.00000001
 43
0.00000001
 40
0.0
 40
0.0
 40
0.0
 40
0.0
 40
0.0296323149404998
 40
0.086518787486198
 40
0.1436058134241204
 40
0.2008871315683158
 40
0.2583369463171437
 40
0.315903688037458
 40
0.3735261826847254
 40
0.4311360387700509
 40
0.4886497596775191
 40
0.5460017743782201
 40
0.6031306387291858
 40
0.6599898901528679
 40
0.7165735534043862
 40
0.7729695411267475
 40
0.829380573098392
 40
0.8862801152376996
 40
0.9446725312628569
 40
1.0
 40
1.0
 40
1.0
 40
1.0
 10
435.9309215494433
 20
-89.4025280294094
 30
0.0
 10
435.9277918276211
 20
-89.57552262218468
 30
0.0
 10
435.9186538396585
 20
-90.08062262664396
 30
0.0
 10
435.8151401059131
 20
-90.97712472863186
 30
0.0
 10
435.5805127977353
 20
-92.09167871105909
 30
0.0
 10
435.2293764762496
 20
-93.23778086769921
 30
0.0
 10
434.7691490454706
 20
-94.38991374433677
 30
0.0
 10
434.2076317809774
 20
-95.52443751186337
 30
0.0
 10
433.5560144018192
 20
-96.61750032454242
 30
0.0
 10
432.8278164558267
 20
-97.64627856789787
 30
0.0
 10
432.0387955338527
 20
-98.5894935912648
 30
0.0
 10
431.2065675475146
 20
-99.42804881546182
 30
0.0
 10
430.3502182871249
 20
-100.1456550341267
 30
0.0
 10
429.489987196737
 20
-100.729364436814
 30
0.0
 10
428.646565509145
 20
-101.1704447476885
 30
0.0
 10
427.8406024513997
 20
-101.4645771224881
 30
0.0
 10
427.0901088054538
 20
-101.6140834523743
 30
0.0
 10
426.4102374829209
 20
-101.6216806887419
 30
0.0
 10
425.8166596072974
 20
-101.5126278730305
 30
0.0
 10
425.4896599696291
 20
-101.3383184775857
 30
0.0
 10
425.3305667532759
 20
-101.2535127494826
 30
0.0
  0
SPLINE
  5
12E
330
1F
100
AcDbEntity
  8
0
  6
Continuous
 62
     7
370
    25
100
AcDbSpline
210
0.0
220
0.0
230
1.0
 70
     8
 71
     3
 72
    14
 73
    10
 74
     0
 42
0.00000001
 43
0.00000001
 40
0.0
 40
0.0
 40
0.0
 40
0.0
 40
0.0791203369605325
 40
0.2742985693216561
 40
0.4423349447148238
 40
0.6211063478830459
 40
0.7937407169123867
 40
0.9537434589303263
 40
1.0
 40
1.0
 40
1.0
 40
1.0
 10
377.7120648484824
 20
-183.6480352143313
 30
0.0
 10
377.7908056502266
 20
-183.6848966274828
 30
0.0
 10
378.0637884267844
 20
-183.8126897244165
 30
0.0
 10
378.4223265413806
 20
-184.1658827592441
 30
0.0
 10
378.8113568490647
 20
-184.7214805962364
 30
0.0
 10
379.102485623483
 20
-185.4070375695181
 30
0.0
 10
379.2923212881124
 20
-186.2169896668856
 30
0.0
 10
379.3575348528704
 20
-186.8979441421288
 30
0.0
 10
379.3614916803756
 20
-187.2934252584529
 30
0.0
 10
379.3623790545158
 20
-187.3821174531782
 30
0.0
  0
SPLINE
  5
12F
330
1F
100
AcDbEntity
  8
0
  6
Continuous
 62
     7
370
    25
100
AcDbSpline
210
0.0
220
0.0
230
1.0
 70
     8
 71
     3
 72
    25
 73
    21
 74
     0
 42
0.00000001
 43
0.00000001
 40
0.0
 40
0.0
 40
0.0
 40
0.0
 40
0.0296323149404997
 40
0.0865187874861858
 40
0.143605813424114
 40
0.2008871315683055
 40
0.2583369463171368
 40
0.3159036880374504
 40
0.3735261826847228
 40
0.4311360387700489
 40
0.4886497596775159
 40
0.5460017743782188
 40
0.6031306387291832
 40
0.6599898901528628
 40
0.7165735534043829
 40
0.7729695411267451
 40
0.8293805730983916
 40
0.8862801152377026
 40
0.9446725312628573
 40
1.0
 40
1.0
 40
1.0
 40
1.0
 10
379.3623790545158
 20
-187.3821174531782
 30
0.0
 10
379.3592493326936
 20
-187.5551120459535
 30
0.0
 10
379.3501113447311
 20
-188.0602120504127
 30
0.0
 10
379.2465976109856
 20
-188.9567141524006
 30
0.0
 10
379.0119703028078
 20
-190.0712681348277
 30
0.0
 10
378.6608339813221
 20
-191.2173702914679
 30
0.0
 10
378.2006065505432
 20
-192.3695031681054
 30
0.0
 10
377.6390892860499
 20
-193.5040269356321
 30
0.0
 10
376.9874719068917
 20
-194.5970897483112
 30
0.0
 10
376.2592739608992
 20
-195.6258679916666
 30
0.0
 10
375.4702530389253
 20
-196.5690830150336
 30
0.0
 10
374.6380250525871
 20
-197.4076382392306
 30
0.0
 10
373.7816757921974
 20
-198.1252444578955
 30
0.0
 10
372.9214447018095
 20
-198.7089538605828
 30
0.0
 10
372.0780230142175
 20
-199.1500341714573
 30
0.0
 10
371.2720599564722
 20
-199.4441665462568
 30
0.0
 10
370.5215663105263
 20
-199.5936728761431
 30
0.0
 10
369.8416949879934
 20
-199.6012701125107
 30
0.0
 10
369.2481171123699
 20
-199.4922172967993
 30
0.0
 10
368.9211174747016
 20
-199.3179079013545
 30
0.0
 10
368.7620242583484
 20
-199.2331021732514
 30
0.0
  0
SPLINE
  5
130
330
1F
100
AcDbEntity
  8
0
  6
Continuous
 62
     7
370
    25
100
AcDbSpline
210
0.0
220
0.0
230
1.0
 70
     8
 71
     3
 72
    55
 73
    51
 74
     0
 42
0.00000001
 43
0.00000001
 40
0.0
 40
0.0
 40
0.0
 40
0.0
 40
0.0016283098592104
 40
0.0234352651002287
 40
0.0451736723931995
 40
0.0668512675319819
 40
0.0884791873455116
 40
0.1100693377880675
 40
0.1316327416897493
 40
0.153178729653399
 40
0.1747147078791873
 40
0.1962462567915407
 40
0.2177769481992793
 40
0.2393091587065881
 40
0.2608449332775639
 40
0.2823854927646764
 40
0.3039314487829776
 40
0.3254829732418056
 40
0.3470399274921671
 40
0.3686019581567326
 40
0.3901685666444421
 40
0.4117391584954934
 40
0.4333130776106037
 40
0.4548896293623023
 40
0.4764680956787611
 40
0.4980477444647829
 40
0.5196278351752
 40
0.5412075187232143
 40
0.5627859005593152
 40
0.5843622305821176
 40
0.605935760657152
 40
0.6275057498504064
 40
0.6490714734207514
 40
0.6706322373280678
 40
0.6921874005995945
 40
0.7137364086209302
 40
0.7352788413280803
 40
0.7568144813456936
 40
0.7783434082403549
 40
0.7998661259831186
 40
0.821383730919256
 40
0.8428981260477715
 40
0.8644117659479418
 40
0.8859279153821291
 40
0.9074520081052481
 40
0.9289913274636363
 40
0.9505551482295047
 40
0.9721545837418619
 40
0.9938019108673618
 40
0.9999999999999999
 40
0.9999999999999999
 40
0.9999999999999999
 40
0.9999999999999999
 10
353.4379913250808
 20
-175.1924018410897
 30
0.0
 10
353.4093650640394
 20
-175.1567750742718
 30
0.0
 10
352.9973648464278
 20
-174.6440208706921
 30
0.0
 10
352.299603440486
 20
-173.5237987818603
 30
0.0
 10
351.3579970063608
 20
-171.8285250006984
 30
0.0
 10
350.5407908612463
 20
-169.9930033470385
 30
0.0
 10
349.836175298447
 20
-168.0424911663317
 30
0.0
 10
349.2499752858852
 20
-165.9778192693067
 30
0.0
 10
348.7830255274978
 20
-163.8067197016548
 30
0.0
 10
348.4371909676904
 20
-161.5355438448374
 30
0.0
 10
348.2137090198241
 20
-159.1715161556388
 30
0.0
 10
348.1135768660239
 20
-156.7221513117501
 30
0.0
 10
348.1373922426416
 20
-154.1953898504271
 30
0.0
 10
348.2853525455498
 20
-151.59949459559
 30
0.0
 10
348.5572328343781
 20
-148.9430021690114
 30
0.0
 10
348.9523828143967
 20
-146.2346789893339
 30
0.0
 10
349.4697198010029
 20
-143.4835079018367
 30
0.0
 10
350.1077284203364
 20
-140.6986452430379
 30
0.0
 10
350.8644644038132
 20
-137.8893797949828
 30
0.0
 10
351.7375616157692
 20
-135.0650934866246
 30
0.0
 10
352.7242414186899
 20
-132.2352238581856
 30
0.0
 10
353.8213238100931
 20
-129.4092280684588
 30
0.0
 10
355.0252399273548
 20
-126.5965482258984
 30
0.0
 10
356.3320456569883
 20
-123.806577829698
 30
0.0
 10
357.7374361759869
 20
-121.0486291419617
 30
0.0
 10
359.2367613147109
 20
-118.3319013497717
 30
0.0
 10
360.8250391405992
 20
-115.6654536595156
 30
0.0
 10
362.4969709597248
 20
-113.0581759245608
 30
0.0
 10
364.2469619357065
 20
-110.5187518784702
 30
0.0
 10
366.0691426911667
 20
-108.0556254382083
 30
0.0
 10
367.9573903510117
 20
-105.6769706295872
 30
0.0
 10
369.9053445233265
 20
-103.3906687818392
 30
0.0
 10
371.9064278792363
 20
-101.2042802366658
 30
0.0
 10
373.9538677054402
 20
-99.12501639580736
 30
0.0
 10
376.0407186186799
 20
-97.15971209205738
 30
0.0
 10
378.1598867160736
 20
-95.31479830107428
 30
0.0
 10
380.3041555550847
 20
-93.59627524641284
 30
0.0
 10
382.4662144465863
 20
-92.00968615446614
 30
0.0
 10
384.6386898429305
 20
-90.56009175355162
 30
0.0
 10
386.8141801589027
 20
-89.25204722041624
 30
0.0
 10
388.9852965848181
 20
-88.08957885150008
 30
0.0
 10
391.1446870593012
 20
-87.07618469114826
 30
0.0
 10
393.2850843335861
 20
-86.21479265968401
 30
0.0
 10
395.3993268445952
 20
-85.50786642517056
 30
0.0
 10
397.480640821988
 20
-84.95694721359715
 30
0.0
 10
399.5219518917383
 20
-84.56442030830624
 30
0.0
 10
401.5187798459214
 20
-84.32709794506786
 30
0.0
 10
403.458579118248
 20
-84.26052988086627
 30
0.0
 10
404.9065656513166
 20
-84.29698409944488
 30
0.0
 10
405.6831883660307
 20
-84.40699779213958
 30
0.0
 10
405.8560562004924
 20
-84.4314856527918
 30
0.0
  0
SPLINE
  5
131
330
1F
100
AcDbEntity
  8
0
  6
Continuous
 62
     7
370
    25
100
AcDbSpline
210
0.0
220
0.0
230
1.0
 70
     8
 71
     3
 72
    14
 73
    10
 74
     0
 42
0.00000001
 43
0.00000001
 40
0.0
 40
0.0
 40
0.0
 40
0.0
 40
0.0791203369605309
 40
0.2742985693216516
 40
0.4423349447148184
 40
0.621106347883063
 40
0.7937407169123991
 40
0.9537434589303462
 40
1.0
 40
1.0
 40
1.0
 40
1.0
 10
417.7120648484877
 20
-49.04273816404783
 30
0.0
 10
417.7908056502319
 20
-49.07959957719929
 30
0.0
 10
418.0637884267898
 20
-49.20739267413295
 30
0.0
 10
418.422326541386
 20
-49.56058570896062
 30
0.0
 10
418.8113568490701
 20
-50.11618354595293
 30
0.0
 10
419.1024856234884
 20
-50.80174051923458
 30
0.0
 10
419.2923212881177
 20
-51.61169261660211
 30
0.0
 10
419.3575348528757
 20
-52.29264709184543
 30
0.0
 10
419.3614916803809
 20
-52.68812820816937
 30
0.0
 10
419.3623790545211
 20
-52.77682040289472
 30
0.0
  0
SPLINE
  5
132
330
1F
100
AcDbEntity
  8
0
  6
Continuous
 62
     7
370
    25
100
AcDbSpline
210
0.0
220
0.0
230
1.0
 70
     8
 71
     3
 72
    25
 73
    21
 74
     0
 42
0.00000001
 43
0.00000001
 40
0.0
 40
0.0
 40
0.0
 40
0.0
 40
0.0296323149404999
 40
0.0865187874861979
 40
0.1436058134241204
 40
0.2008871315683161
 40
0.2583369463171448
 40
0.3159036880374546
 40
0.3735261826847245
 40
0.4311360387700519
 40
0.4886497596775169
 40
0.5460017743782148
 40
0.6031306387291833
 40
0.6599898901528622
 40
0.7165735534043843
 40
0.7729695411267442
 40
0.8293805730983876
 40
0.8862801152376959
 40
0.9446725312628531
 40
1.0
 40
1.0
 40
1.0
 40
1.0
 10
419.3623790545211
 20
-52.77682040289472
 30
0.0
 10
419.3592493326989
 20
-52.94981499567
 30
0.0
 10
419.3501113447364
 20
-53.45491500012925
 30
0.0
 10
419.2465976109909
 20
-54.35141710211719
 30
0.0
 10
419.011970302813
 20
-55.4659710845444
 30
0.0
 10
418.6608339813274
 20
-56.61207324118452
 30
0.0
 10
418.2006065505483
 20
-57.76420611782204
 30
0.0
 10
417.6390892860552
 20
-58.89872988534866
 30
0.0
 10
416.987471906897
 20
-59.99179269802768
 30
0.0
 10
416.2592739609045
 20
-61.02057094138318
 30
0.0
 10
415.4702530389305
 20
-61.96378596475008
 30
0.0
 10
414.6380250525924
 20
-62.80234118894708
 30
0.0
 10
413.7816757922027
 20
-63.51994740761197
 30
0.0
 10
412.9214447018148
 20
-64.1036568102993
 30
0.0
 10
412.0780230142228
 20
-64.54473712117385
 30
0.0
 10
411.2720599564776
 20
-64.83886949597334
 30
0.0
 10
410.5215663105317
 20
-64.98837582585958
 30
0.0
 10
409.8416949879987
 20
-64.99597306222721
 30
0.0
 10
409.2481171123753
 20
-64.88692024651583
 30
0.0
 10
408.9211174747069
 20
-64.71261085107098
 30
0.0
 10
408.7620242583537
 20
-64.62780512296791
 30
0.0
  0
SPLINE
  5
133
330
1F
100
AcDbEntity
  8
0
  6
Continuous
 62
     7
370
    25
100
AcDbSpline
210
0.0
220
0.0
230
1.0
 70
     8
 71
     3
 72
    14
 73
    10
 74
     0
 42
0.00000001
 43
0.00000001
 40
0.0
 40
0.0
 40
0.0
 40
0.0
 40
0.0791203369604998
 40
0.2742985693216095
 40
0.4423349447147792
 40
0.6211063478830078
 40
0.7937407169123467
 40
0.9537434589302827
 40
1.0
 40
1.0
 40
1.0
 40
1.0
 10
337.7120648484824
 20
-187.6068023628891
 30
0.0
 10
337.7908056502266
 20
-187.6436637760406
 30
0.0
 10
338.0637884267844
 20
-187.7714568729742
 30
0.0
 10
338.4223265413806
 20
-188.1246499078018
 30
0.0
 10
338.8113568490647
 20
-188.680247744794
 30
0.0
 10
339.102485623483
 20
-189.3658047180757
 30
0.0
 10
339.2923212881124
 20
-190.1757568154432
 30
0.0
 10
339.3575348528705
 20
-190.8567112906865
 30
0.0
 10
339.3614916803756
 20
-191.2521924070106
 30
0.0
 10
339.3623790545159
 20
-191.340884601736
 30
0.0
  0
SPLINE
  5
134
330
1F
100
AcDbEntity
  8
0
  6
Continuous
 62
     7
370
    25
100
AcDbSpline
210
0.0
220
0.0
230
1.0
 70
     8
 71
     3
 72
    25
 73
    21
 74
     0
 42
0.00000001
 43
0.00000001
 40
0.0
 40
0.0
 40
0.0
 40
0.0
 40
0.0296323149405
 40
0.0865187874861817
 40
0.1436058134241104
 40
0.2008871315683031
 40
0.2583369463171355
 40
0.315903688037447
 40
0.373526182684716
 40
0.431136038770044
 40
0.4886497596775114
 40
0.5460017743782096
 40
0.6031306387291783
 40
0.659989890152858
 40
0.7165735534043781
 40
0.7729695411267359
 40
0.8293805730983825
 40
0.8862801152376885
 40
0.9446725312628494
 40
1.0
 40
1.0
 40
1.0
 40
1.0
 10
339.3623790545159
 20
-191.340884601736
 30
0.0
 10
339.3592493326937
 20
-191.5138791945113
 30
0.0
 10
339.3501113447311
 20
-192.0189791989705
 30
0.0
 10
339.2465976109858
 20
-192.9154813009583
 30
0.0
 10
339.0119703028078
 20
-194.0300352833855
 30
0.0
 10
338.6608339813222
 20
-195.1761374400256
 30
0.0
 10
338.2006065505432
 20
-196.3282703166632
 30
0.0
 10
337.63908928605
 20
-197.4627940841898
 30
0.0
 10
336.9874719068918
 20
-198.5558568968689
 30
0.0
 10
336.2592739608994
 20
-199.5846351402243
 30
0.0
 10
335.4702530389254
 20
-200.5278501635913
 30
0.0
 10
334.6380250525872
 20
-201.3664053877883
 30
0.0
 10
333.7816757921975
 20
-202.0840116064533
 30
0.0
 10
332.9214447018096
 20
-202.6677210091405
 30
0.0
 10
332.0780230142176
 20
-203.1088013200151
 30
0.0
 10
331.2720599564724
 20
-203.4029336948147
 30
0.0
 10
330.5215663105265
 20
-203.5524400247009
 30
0.0
 10
329.8416949879935
 20
-203.5600372610685
 30
0.0
 10
329.24811711237
 20
-203.4509844453571
 30
0.0
 10
328.9211174747016
 20
-203.2766750499123
 30
0.0
 10
328.7620242583484
 20
-203.1918693218092
 30
0.0
  0
SPLINE
  5
135
330
1F
100
AcDbEntity
  8
0
  6
Continuous
 62
     7
370
    25
100
AcDbSpline
210
0.0
220
0.0
230
1.0
 70
     8
 71
     3
 72
    14
 73
    10
 74
     0
 42
0.00000001
 43
0.00000001
 40
0.0
 40
0.0
 40
0.0
 40
0.0
 40
0.0791203369605624
 40
0.2742985693216987
 40
0.4423349447148727
 40
0.6211063478830975
 40
0.7937407169124379
 40
0.9537434589303767
 40
1.0
 40
1.0
 40
1.0
 40
1.0
 10
377.7120648484878
 20
-53.00150531260565
 30
0.0
 10
377.790805650232
 20
-53.03836672575715
 30
0.0
 10
378.0637884267899
 20
-53.16615982269085
 30
0.0
 10
378.4223265413862
 20
-53.51935285751855
 30
0.0
 10
378.8113568490703
 20
-54.07495069451089
 30
0.0
 10
379.1024856234885
 20
-54.76050766779261
 30
0.0
 10
379.2923212881178
 20
-55.57045976516014
 30
0.0
 10
379.3575348528757
 20
-56.25141424040329
 30
0.0
 10
379.3614916803809
 20
-56.64689535672726
 30
0.0
 10
379.3623790545212
 20
-56.73558755145253
 30
0.0
  0
SPLINE
  5
136
330
1F
100
AcDbEntity
  8
0
  6
Continuous
 62
     7
370
    25
100
AcDbSpline
210
0.0
220
0.0
230
1.0
 70
     8
 71
     3
 72
    25
 73
    21
 74
     0
 42
0.00000001
 43
0.00000001
 40
0.0
 40
0.0
 40
0.0
 40
0.0
 40
0.0296323149404996
 40
0.0865187874861857
 40
0.1436058134241139
 40
0.2008871315683053
 40
0.2583369463171366
 40
0.3159036880374501
 40
0.3735261826847224
 40
0.4311360387700486
 40
0.4886497596775156
 40
0.5460017743782184
 40
0.6031306387291826
 40
0.6599898901528621
 40
0.7165735534043821
 40
0.7729695411267443
 40
0.8293805730983909
 40
0.8862801152377016
 40
0.9446725312628558
 40
1.0
 40
1.0
 40
1.0
 40
1.0
 10
379.3623790545212
 20
-56.73558755145251
 30
0.0
 10
379.3592493326989
 20
-56.90858214422779
 30
0.0
 10
379.3501113447364
 20
-57.413682148687
 30
0.0
 10
379.246597610991
 20
-58.31018425067489
 30
0.0
 10
379.0119703028132
 20
-59.42473823310198
 30
0.0
 10
378.6608339813275
 20
-60.57084038974218
 30
0.0
 10
378.2006065505485
 20
-61.7229732663797
 30
0.0
 10
377.6390892860553
 20
-62.85749703390638
 30
0.0
 10
376.9874719068971
 20
-63.95055984658546
 30
0.0
 10
376.2592739609046
 20
-64.97933808994092
 30
0.0
 10
375.4702530389305
 20
-65.92255311330788
 30
0.0
 10
374.6380250525925
 20
-66.76110833750494
 30
0.0
 10
373.7816757922028
 20
-67.47871455616975
 30
0.0
 10
372.9214447018149
 20
-68.06242395885711
 30
0.0
 10
372.0780230142229
 20
-68.50350426973161
 30
0.0
 10
371.2720599564776
 20
-68.79763664453117
 30
0.0
 10
370.5215663105317
 20
-68.94714297441743
 30
0.0
 10
369.8416949879987
 20
-68.95474021078502
 30
0.0
 10
369.2481171123753
 20
-68.84568739507361
 30
0.0
 10
368.921117474707
 20
-68.67137799962876
 30
0.0
 10
368.7620242583537
 20
-68.58657227152568
 30
0.0
  0
SPLINE
  5
137
330
1F
100
AcDbEntity
  8
0
  6
Continuous
 62
     7
370
    25
100
AcDbSpline
210
0.0
220
0.0
230
1.0
 70
     8
 71
     3
 72
    14
 73
    10
 74
     0
 42
0.00000001
 43
0.00000001
 40
0.0
 40
0.0
 40
0.0
 40
0.0
 40
0.0791203369605321
 40
0.2742985693216544
 40
0.4423349447148355
 40
0.6211063478830611
 40
0.7937407169124181
 40
0.9537434589303597
 40
1.0
 40
1.0
 40
1.0
 40
1.0
 10
321.1435223535602
 20
-150.9810947363744
 30
0.0
 10
321.2222631553045
 20
-151.0179561495259
 30
0.0
 10
321.4952459318623
 20
-151.1457492464596
 30
0.0
 10
321.8537840464585
 20
-151.4989422812873
 30
0.0
 10
322.2428143541426
 20
-152.0545401182796
 30
0.0
 10
322.5339431285609
 20
-152.7400970915613
 30
0.0
 10
322.7237787931903
 20
-153.5500491889288
 30
0.0
 10
322.7889923579482
 20
-154.2310036641721
 30
0.0
 10
322.7929491854534
 20
-154.626484780496
 30
0.0
 10
322.7938365595937
 20
-154.7151769752213
 30
0.0
  0
SPLINE
  5
138
330
1F
100
AcDbEntity
  8
0
  6
Continuous
 62
     7
370
    25
100
AcDbSpline
210
0.0
220
0.0
230
1.0
 70
     8
 71
     3
 72
    25
 73
    21
 74
     0
 42
0.00000001
 43
0.00000001
 40
0.0
 40
0.0
 40
0.0
 40
0.0
 40
0.0296323149404998
 40
0.086518787486198
 40
0.1436058134241203
 40
0.2008871315683157
 40
0.2583369463171436
 40
0.3159036880374572
 40
0.3735261826847299
 40
0.4311360387700587
 40
0.4886497596775238
 40
0.5460017743782237
 40
0.6031306387291918
 40
0.6599898901528733
 40
0.7165735534043911
 40
0.7729695411267525
 40
0.829380573098398
 40
0.8862801152377053
 40
0.9446725312628595
 40
1.0
 40
1.0
 40
1.0
 40
1.0
 10
322.7938365595937
 20
-154.7151769752213
 30
0.0
 10
322.7907068377714
 20
-154.8881715679966
 30
0.0
 10
322.7815688498089
 20
-155.3932715724559
 30
0.0
 10
322.6780551160634
 20
-156.2897736744438
 30
0.0
 10
322.4434278078856
 20
-157.404327656871
 30
0.0
 10
322.0922914863999
 20
-158.5504298135111
 30
0.0
 10
321.6320640556209
 20
-159.7025626901487
 30
0.0
 10
321.0705467911277
 20
-160.8370864576753
 30
0.0
 10
320.4189294119694
 20
-161.9301492703544
 30
0.0
 10
319.690731465977
 20
-162.9589275137099
 30
0.0
 10
318.901710544003
 20
-163.9021425370768
 30
0.0
 10
318.0694825576648
 20
-164.7406977612738
 30
0.0
 10
317.2131332972751
 20
-165.4583039799387
 30
0.0
 10
316.3529022068872
 20
-166.042013382626
 30
0.0
 10
315.5094805192952
 20
-166.4830936935005
 30
0.0
 10
314.70351746155
 20
-166.7772260683
 30
0.0
 10
313.9530238156041
 20
-166.9267323981862
 30
0.0
 10
313.2731524930712
 20
-166.9343296345538
 30
0.0
 10
312.6795746174477
 20
-166.8252768188424
 30
0.0
 10
312.3525749797794
 20
-166.6509674233976
 30
0.0
 10
312.1934817634262
 20
-166.5661616952945
 30
0.0
  0
SPLINE
  5
139
330
1F
100
AcDbEntity
  8
0
  6
Continuous
 62
     7
370
    25
100
AcDbSpline
210
0.0
220
0.0
230
1.0
 70
     8
 71
     3
 72
    14
 73
    10
 74
     0
 42
0.00000001
 43
0.00000001
 40
0.0
 40
0.0
 40
0.0
 40
0.0
 40
0.079120336960544
 40
0.2742985693216608
 40
0.4423349447148276
 40
0.6211063478830511
 40
0.7937407169123925
 40
0.9537434589303329
 40
1.0
 40
1.0
 40
1.0
 40
1.0
 10
337.7120648484862
 20
-95.22575513088788
 30
0.0
 10
337.7908056502304
 20
-95.26261654403935
 30
0.0
 10
338.0637884267883
 20
-95.39040964097306
 30
0.0
 10
338.4223265413845
 20
-95.7436026758007
 30
0.0
 10
338.8113568490686
 20
-96.29920051279298
 30
0.0
 10
339.1024856234869
 20
-96.98475748607461
 30
0.0
 10
339.2923212881162
 20
-97.79470958344213
 30
0.0
 10
339.3575348528742
 20
-98.47566405868538
 30
0.0
 10
339.3614916803794
 20
-98.87114517500939
 30
0.0
 10
339.3623790545196
 20
-98.95983736973476
 30
0.0
  0
SPLINE
  5
13A
330
1F
100
AcDbEntity
  8
0
  6
Continuous
 62
     7
370
    25
100
AcDbSpline
210
0.0
220
0.0
230
1.0
 70
     8
 71
     3
 72
    25
 73
    21
 74
     0
 42
0.00000001
 43
0.00000001
 40
0.0
 40
0.0
 40
0.0
 40
0.0
 40
0.0296323149404999
 40
0.0865187874861816
 40
0.1436058134241103
 40
0.2008871315683029
 40
0.2583369463171352
 40
0.315903688037447
 40
0.3735261826847178
 40
0.4311360387700457
 40
0.4886497596775111
 40
0.5460017743782147
 40
0.6031306387291794
 40
0.6599898901528616
 40
0.7165735534043777
 40
0.7729695411267429
 40
0.8293805730983876
 40
0.8862801152376968
 40
0.9446725312628527
 40
1.0
 40
1.0
 40
1.0
 40
1.0
 10
339.3623790545196
 20
-98.95983736973474
 30
0.0
 10
339.3592493326974
 20
-99.13283196251002
 30
0.0
 10
339.3501113447349
 20
-99.6379319669692
 30
0.0
 10
339.2465976109895
 20
-100.534434068957
 30
0.0
 10
339.0119703028116
 20
-101.6489880513842
 30
0.0
 10
338.6608339813259
 20
-102.7950902080243
 30
0.0
 10
338.200606550547
 20
-103.9472230846619
 30
0.0
 10
337.6390892860538
 20
-105.0817468521885
 30
0.0
 10
336.9874719068956
 20
-106.1748096648676
 30
0.0
 10
336.2592739609032
 20
-107.2035879082231
 30
0.0
 10
335.4702530389291
 20
-108.14680293159
 30
0.0
 10
334.6380250525909
 20
-108.9853581557871
 30
0.0
 10
333.7816757922013
 20
-109.702964374452
 30
0.0
 10
332.9214447018134
 20
-110.2866737771393
 30
0.0
 10
332.0780230142214
 20
-110.7277540880138
 30
0.0
 10
331.2720599564761
 20
-111.0218864628134
 30
0.0
 10
330.5215663105303
 20
-111.1713927926996
 30
0.0
 10
329.8416949879972
 20
-111.1789900290672
 30
0.0
 10
329.2481171123738
 20
-111.0699372133559
 30
0.0
 10
328.9211174747055
 20
-110.895627817911
 30
0.0
 10
328.7620242583522
 20
-110.8108220898079
 30
0.0
  0
LWPOLYLINE
  5
13B
330
1F
100
AcDbEntity
  8
0
  6
Continuous
 62
     7
370
    25
100
AcDbPolyline
 90
      143
 70
   128
 43
0.0
 10
444.0019893613
 20
-84.5040793585
 10
443.9320875274
 20
-80.8964812106
 10
443.722518862
 20
-77.376652045
 10
443.3736936054
 20
-73.9514820926
 10
442.8862945996
 20
-70.6276762843
 10
442.2612759509
 20
-67.4117411262
 10
441.4998611628
 20
-64.3099719623
 10
440.6035407403
 20
-61.3284406514
 10
439.5740692729
 20
-58.4729836811
 10
438.4134619993
 20
-55.7491907425
 10
437.1239908628
 20
-53.1623937882
 10
435.7081800635
 20
-50.7176565947
 10
434.1688011177
 20
-48.4197648498
 10
432.5088674319
 20
-46.2732167846
 10
430.7316284043
 20
-44.2822143677
 10
428.8405630638
 20
-42.4506550798
 10
426.8393732594
 20
-40.7821242842
 10
424.7319764143
 20
-39.2798882083
 10
422.5224978568
 20
-37.9468875499
 10
420.2152627448
 20
-36.7857317202
 10
417.8147875995
 20
-35.7986937364
 10
415.3257714637
 20
-34.9877057716
 10
412.7530867033
 20
-34.3543553729
 10
410.1017694696
 20
-33.8998823534
 10
407.3770098405
 20
-33.6251763654
 10
404.5841416611
 20
-33.5307751587
 10
401.7286321018
 20
-33.6168635282
 10
398.8160709569
 20
-33.8832729519
 10
395.8521597014
 20
-34.3294819207
 10
392.8427003309
 20
-34.9546169597
 10
389.7935840033
 20
-35.7574543377
 10
386.7107795072
 20
-36.7364224628
 10
383.600321577
 20
-37.8896049589
 10
380.4682990803
 20
-39.2147444171
 10
377.3208430981
 20
-40.7092468148
 10
374.1641149233
 20
-42.3701865932
 10
371.0042939996
 20
-44.1943123849
 10
367.8475658249
 20
-46.1780533778
 10
364.7001098427
 20
-48.3175263058
 10
361.5680873459
 20
-50.6085430503
 10
358.4576294157
 20
-53.0466188383
 10
355.3748249196
 20
-55.6269810219
 10
352.3257085921
 20
-58.3445784212
 10
349.3162492216
 20
-61.1940912114
 10
346.3523379661
 20
-64.1699413376
 10
343.4397768211
 20
-67.2663034333
 10
340.5842672619
 20
-70.4771162244
 10
337.7913990824
 20
-73.796094394
 10
335.0666394534
 20
-77.2167408864
 10
332.4153222197
 20
-80.7323596257
 10
329.8426374593
 20
-84.3360686229
 10
327.3536213234
 20
-88.0208134485
 10
324.9531461781
 20
-91.7793810414
 10
322.6459110661
 20
-95.6044138292
 10
320.4364325086
 20
-99.4884241304
 10
318.3290356635
 20
-103.4238088126
 10
316.3278458592
 20
-107.4028641753
 10
314.4367805186
 20
-111.417801031
 10
312.659541491
 20
-115.460759952
 10
310.9996078052
 20
-119.5238266566
 10
309.4602288594
 20
-123.5990475008
 10
308.0444180602
 20
-127.6784450484
 10
306.7549469236
 20
-131.7540336872
 10
305.59433965
 20
-135.817835261
 10
304.5648681826
 20
-139.8618946874
 10
303.6685477602
 20
-143.8782955302
 10
302.907132972
 20
-147.8591754961
 10
302.2821143234
 20
-151.7967418256
 10
301.7947153175
 20
-155.6832865478
 10
301.445890061
 20
-159.5112015688
 10
301.2363213955
 20
-163.2729935652
 10
301.1664195616
 20
-166.9612986526
 10
301.2363213955
 20
-170.5688968004
 10
301.445890061
 20
-174.088725966
 10
301.7947153175
 20
-177.5138959185
 10
302.2821143234
 20
-180.8377017267
 10
302.907132972
 20
-184.0536368848
 10
303.6685477602
 20
-187.1554060487
 10
304.5648681826
 20
-190.1369373596
 10
305.59433965
 20
-192.9923943299
 10
306.7549469236
 20
-195.7161872685
 10
308.0444180602
 20
-198.3029842228
 10
309.4602288594
 20
-200.7477214164
 10
310.9996078052
 20
-203.0456131612
 10
312.659541491
 20
-205.1921612264
 10
314.4367805186
 20
-207.1831636434
 10
316.3278458592
 20
-209.0147229313
 10
318.3290356635
 20
-210.6832537268
 10
320.4364325086
 20
-212.1854898027
 10
322.6459110661
 20
-213.5184904611
 10
324.9531461781
 20
-214.6796462908
 10
327.3536213234
 20
-215.6666842746
 10
329.8426374593
 20
-216.4776722394
 10
332.4153222197
 20
-217.1110226382
 10
335.0666394534
 20
-217.5654956577
 10
337.7913990824
 20
-217.8402016457
 10
340.5842672619
 20
-217.9346028523
 10
343.4397768211
 20
-217.8485144828
 10
346.3523379661
 20
-217.5821050591
 10
349.3162492216
 20
-217.1358960903
 10
352.3257085921
 20
-216.5107610513
 10
355.3748249196
 20
-215.7079236733
 10
358.4576294158
 20
-214.7289555483
 10
361.5680873459
 20
-213.5757730522
 10
364.7001098427
 20
-212.2506335939
 10
367.8475658249
 20
-210.7561311963
 10
371.0042939996
 20
-209.0951914178
 10
374.1641149233
 20
-207.2710656262
 10
377.3208430981
 20
-205.2873246333
 10
380.4682990803
 20
-203.1478517052
 10
383.600321577
 20
-200.8568349608
 10
386.7107795072
 20
-198.4187591728
 10
389.7935840033
 20
-195.8383969891
 10
392.8427003309
 20
-193.1207995899
 10
395.8521597014
 20
-190.2712867996
 10
398.8160709569
 20
-187.2954366734
 10
401.7286321018
 20
-184.1990745777
 10
404.5841416611
 20
-180.9882617867
 10
407.3770098405
 20
-177.6692836171
 10
410.1017694696
 20
-174.2486371246
 10
412.7530867033
 20
-170.7330183854
 10
415.3257714637
 20
-167.1293093881
 10
417.8147875995
 20
-163.4445645625
 10
420.2152627448
 20
-159.6859969696
 10
422.5224978568
 20
-155.8609641818
 10
424.7319764143
 20
-151.9769538806
 10
426.8393732594
 20
-148.0415691985
 10
428.8405630638
 20
-144.0625138357
 10
430.7316284043
 20
-140.0475769801
 10
432.5088674319
 20
-136.004618059
 10
434.1688011177
 20
-131.9415513544
 10
435.7081800635
 20
-127.8663305103
 10
437.1239908628
 20
-123.7869329626
 10
438.4134619993
 20
-119.7113443239
 10
439.5740692729
 20
-115.64754275
 10
440.6035407403
 20
-111.6034833236
 10
441.4998611628
 20
-107.5870824808
 10
442.2612759509
 20
-103.6062025149
 10
442.8862945996
 20
-99.6686361854
 10
443.3736936054
 20
-95.7820914632
 10
443.722518862
 20
-91.9541764422
 10
443.9320875274
 20
-88.1923844458
 10
444.0019893613
 20
-84.5040793585
  0
ARC
  5
13C
330
1F
100
AcDbEntity
  8
0
  6
Continuous
 62
     7
370
    25
100
AcDbCircle
 10
339.5130225764
 20
-184.6554536189
 30
0.0
 40
34.43279707476054
100
AcDbArc
 50
226.6191456011
 51
254.0285114737
  0
ARC
  5
13D
330
1F
100
AcDbEntity
  8
0
  6
Continuous
 62
     7
370
    25
100
AcDbCircle
 10
407.0597962368
 20
-67.645858118
 30
0.0
 40
34.45432881854396
100
AcDbArc
 50
45.9126760454
 51
74.0843486501
  0
ARC
  5
13E
330
1F
100
AcDbEntity
  8
0
  6
Continuous
 62
     7
370
    25
100
AcDbCircle
 10
419.6868883575
 20
-75.0996821065
 30
0.0
 40
34.59993092067243
100
AcDbArc
 50
46.9360524942
 51
59.9459966739
  0
ARC
  5
13F
330
1F
100
AcDbEntity
  8
0
  6
Continuous
 62
     7
370
    25
100
AcDbCircle
 10
352.272449709
 20
-191.8960225763
 30
0.0
 40
34.54427724742747
100
AcDbArc
 50
240.0441679936
 51
253.8688467362
  0
LWPOLYLINE
  5
140
330
1F
100
AcDbEntity
  8
0
  6
Continuous
 62
     7
370
    25
100
AcDbPolyline
 90
       45
 70
   128
 43
0.0
 10
323.0867297784
 20
-154.3069729193
 10
323.0147565037
 20
-155.5105809423
 10
322.800301848
 20
-156.7727855509
 10
322.4477314895
 20
-158.0678918994
 10
321.9642227442
 20
-159.3695353571
 10
321.3596184556
 20
-160.6512182171
 10
320.6462266236
 20
-161.8868491121
 10
319.8385698486
 20
-163.0512741607
 10
318.9530896935
 20
-164.1207890265
 10
318.0078119808
 20
-165.0736214713
 10
317.0219798386
 20
-165.8903745742
 10
316.0156619665
 20
-166.5544215973
 10
315.0093440945
 20
-167.0522444582
 10
314.0235119523
 20
-167.373708919
 10
313.0782342395
 20
-167.5122708904
 10
312.1927540845
 20
-167.4651096502
 10
311.3850973095
 20
-167.2331852652
 10
310.6717054775
 20
-166.8212190471
 10
310.0671011889
 20
-166.2375974402
 10
309.5835924435
 20
-165.4942012972
 10
309.2310220851
 20
-164.6061640199
 10
309.0165674294
 20
-163.5915634863
 10
308.9445941547
 20
-162.4710540375
 10
309.0165674294
 20
-161.2674460146
 10
309.2310220851
 20
-160.0052414059
 10
309.5835924435
 20
-158.7101350575
 10
310.0671011889
 20
-157.4084915997
 10
310.6717054775
 20
-156.1268087398
 10
311.3850973095
 20
-154.8911778447
 10
312.1927540845
 20
-153.7267527962
 10
313.0782342395
 20
-152.6572379303
 10
314.0235119523
 20
-151.7044054855
 10
315.0093440945
 20
-150.8876523827
 10
316.0156619665
 20
-150.2236053596
 10
317.0219798386
 20
-149.7257824987
 10
318.0078119808
 20
-149.4043180378
 10
318.9530896935
 20
-149.2657560664
 10
319.8385698486
 20
-149.3129173067
 10
320.6462266236
 20
-149.5448416916
 10
321.3596184556
 20
-149.9568079097
 10
321.9642227442
 20
-150.5404295167
 10
322.4477314895
 20
-151.2838256597
 10
322.800301848
 20
-152.171862937
 10
323.0147565037
 20
-153.1864634705
 10
323.0867297784
 20
-154.3069729193
  0
LWPOLYLINE
  5
141
330
1F
100
AcDbEntity
  8
0
  6
Continuous
 62
     7
370
    25
100
AcDbPolyline
 90
       45
 70
   128
 43
0.0
 10
419.6552722733
 20
-144.749663579
 10
419.5832989986
 20
-145.9532716019
 10
419.3688443429
 20
-147.2154762106
 10
419.0162739845
 20
-148.5105825591
 10
418.5327652391
 20
-149.8122260168
 10
417.9281609505
 20
-151.0939088767
 10
417.2147691185
 20
-152.3295397718
 10
416.4071123436
 20
-153.4939648203
 10
415.5216321885
 20
-154.5634796862
 10
414.5763544757
 20
-155.516312131
 10
413.5905223335
 20
-156.3330652339
 10
412.5842044615
 20
-156.997112257
 10
411.5778865894
 20
-157.4949351178
 10
410.5920544472
 20
-157.8163995787
 10
409.6467767345
 20
-157.9549615501
 10
408.7612965794
 20
-157.9078003099
 10
407.9536398044
 20
-157.6758759249
 10
407.2402479724
 20
-157.2639097068
 10
406.6356436838
 20
-156.6802880999
 10
406.1521349385
 20
-155.9368919569
 10
405.79956458
 20
-155.0488546796
 10
405.5851099243
 20
-154.034254146
 10
405.5131366496
 20
-152.9137446972
 10
405.5851099243
 20
-151.7101366743
 10
405.79956458
 20
-150.4479320656
 10
406.1521349385
 20
-149.1528257171
 10
406.6356436838
 20
-147.8511822594
 10
407.2402479724
 20
-146.5694993995
 10
407.9536398044
 20
-145.3338685044
 10
408.7612965794
 20
-144.1694434559
 10
409.6467767345
 20
-143.09992859
 10
410.5920544472
 20
-142.1470961452
 10
411.5778865894
 20
-141.3303430423
 10
412.5842044615
 20
-140.6662960192
 10
413.5905223335
 20
-140.1684731583
 10
414.5763544757
 20
-139.8470086975
 10
415.5216321885
 20
-139.7084467261
 10
416.4071123436
 20
-139.7556079663
 10
417.2147691185
 20
-139.9875323513
 10
417.9281609505
 20
-140.3994985694
 10
418.5327652391
 20
-140.9831201763
 10
419.0162739845
 20
-141.7265163193
 10
419.3688443429
 20
-142.6145535966
 10
419.5832989986
 20
-143.6291541302
 10
419.6552722733
 20
-144.749663579
  0
LWPOLYLINE
  5
142
330
1F
100
AcDbEntity
  8
0
  6
Continuous
 62
     7
370
    25
100
AcDbPolyline
 90
       45
 70
   128
 43
0.0
 10
419.6552722733
 20
-52.368616347
 10
419.5832989986
 20
-53.5722243699
 10
419.3688443429
 20
-54.8344289786
 10
419.0162739845
 20
-56.1295353271
 10
418.5327652391
 20
-57.4311787848
 10
417.9281609505
 20
-58.7128616447
 10
417.2147691185
 20
-59.9484925398
 10
416.4071123436
 20
-61.1129175883
 10
415.5216321885
 20
-62.1824324542
 10
414.5763544757
 20
-63.135264899
 10
413.5905223335
 20
-63.9520180019
 10
412.5842044615
 20
-64.616065025
 10
411.5778865894
 20
-65.1138878858
 10
410.5920544472
 20
-65.4353523467
 10
409.6467767345
 20
-65.5739143181
 10
408.7612965794
 20
-65.5267530779
 10
407.9536398044
 20
-65.2948286929
 10
407.2402479724
 20
-64.8828624748
 10
406.6356436838
 20
-64.2992408678
 10
406.1521349385
 20
-63.5558447249
 10
405.79956458
 20
-62.6678074476
 10
405.5851099243
 20
-61.653206914
 10
405.5131366496
 20
-60.5326974652
 10
405.5851099243
 20
-59.3290894423
 10
405.79956458
 20
-58.0668848336
 10
406.1521349385
 20
-56.7717784851
 10
406.6356436838
 20
-55.4701350274
 10
407.2402479724
 20
-54.1884521675
 10
407.9536398044
 20
-52.9528212724
 10
408.7612965794
 20
-51.7883962239
 10
409.6467767345
 20
-50.718881358
 10
410.5920544472
 20
-49.7660489132
 10
411.5778865894
 20
-48.9492958103
 10
412.5842044615
 20
-48.2852487872
 10
413.5905223335
 20
-47.7874259263
 10
414.5763544757
 20
-47.4659614655
 10
415.5216321885
 20
-47.3273994941
 10
416.4071123436
 20
-47.3745607343
 10
417.2147691185
 20
-47.6064851193
 10
417.9281609505
 20
-48.0184513374
 10
418.5327652391
 20
-48.6020729443
 10
419.0162739845
 20
-49.3454690873
 10
419.3688443429
 20
-50.2335063646
 10
419.5832989986
 20
-51.2481068982
 10
419.6552722733
 20
-52.368616347
  0
LWPOLYLINE
  5
143
330
1F
100
AcDbEntity
  8
0
  6
Continuous
 62
     7
370
    25
100
AcDbPolyline
 90
       45
 70
   128
 43
0.0
 10
379.6552722733
 20
-56.3273834955
 10
379.5832989986
 20
-57.5309915185
 10
379.3688443429
 20
-58.7931961272
 10
379.0162739845
 20
-60.0883024756
 10
378.5327652391
 20
-61.3899459334
 10
377.9281609505
 20
-62.6716287933
 10
377.2147691185
 20
-63.9072596884
 10
376.4071123436
 20
-65.0716847369
 10
375.5216321885
 20
-66.1411996028
 10
374.5763544757
 20
-67.0940320475
 10
373.5905223335
 20
-67.9107851504
 10
372.5842044615
 20
-68.5748321735
 10
371.5778865894
 20
-69.0726550344
 10
370.5920544472
 20
-69.3941194952
 10
369.6467767345
 20
-69.5326814666
 10
368.7612965794
 20
-69.4855202264
 10
367.9536398044
 20
-69.2535958414
 10
367.2402479724
 20
-68.8416296234
 10
366.6356436838
 20
-68.2580080164
 10
366.1521349385
 20
-67.5146118734
 10
365.79956458
 20
-66.6265745961
 10
365.5851099243
 20
-65.6119740626
 10
365.5131366496
 20
-64.4914646138
 10
365.5851099243
 20
-63.2878565908
 10
365.79956458
 20
-62.0256519822
 10
366.1521349385
 20
-60.7305456337
 10
366.6356436838
 20
-59.4289021759
 10
367.2402479724
 20
-58.147219316
 10
367.9536398044
 20
-56.9115884209
 10
368.7612965794
 20
-55.7471633724
 10
369.6467767345
 20
-54.6776485066
 10
370.5920544472
 20
-53.7248160618
 10
371.5778865894
 20
-52.9080629589
 10
372.5842044615
 20
-52.2440159358
 10
373.5905223335
 20
-51.7461930749
 10
374.5763544757
 20
-51.4247286141
 10
375.5216321885
 20
-51.2861666427
 10
376.4071123436
 20
-51.3333278829
 10
377.2147691185
 20
-51.5652522679
 10
377.9281609505
 20
-51.9772184859
 10
378.5327652391
 20
-52.5608400929
 10
379.0162739845
 20
-53.3042362359
 10
379.3688443429
 20
-54.1922735132
 10
379.5832989986
 20
-55.2068740467
 10
379.6552722733
 20
-56.3273834955
  0
LWPOLYLINE
  5
144
330
1F
100
AcDbEntity
  8
0
  6
Continuous
 62
     7
370
    25
100
AcDbPolyline
 90
      105
 70
   128
 43
0.0
 10
411.4750774267
 20
-103.2814659304
 10
411.4041231378
 20
-106.0340098713
 10
411.1915191755
 20
-108.8584321562
 10
410.8380413087
 20
-111.7444267743
 10
410.3449793396
 20
-114.6814630443
 10
409.7141323981
 20
-117.6588240394
 10
408.9478023762
 20
-120.6656456922
 10
408.048785529
 20
-123.6909564365
 10
407.0203622715
 20
-126.7237172415
 10
405.8662852086
 20
-129.752861892
 10
404.5907654424
 20
-132.7673373676
 10
403.1984572062
 20
-135.7561441742
 10
401.6944408817
 20
-138.7083764799
 10
400.0842044615
 20
-141.6132619092
 10
398.3736235235
 20
-144.4602008501
 10
396.5689397921
 20
-147.2388051313
 10
394.6767383626
 20
-149.938935927
 10
392.7039236728
 20
-152.5507407527
 10
390.6576943094
 20
-155.064689416
 10
388.5455167416
 20
-157.4716087907
 10
386.3750980763
 20
-159.7627162891
 10
384.1543579357
 20
-161.9296519084
 10
381.8913995599
 20
-163.9645087354
 10
379.5944802384
 20
-165.8598617984
 10
377.2719811809
 20
-167.6087951596
 10
374.9323769346
 20
-169.2049271507
 10
372.5842044615
 20
-170.6424336592
 10
370.2360319884
 20
-171.9160693798
 10
367.896427742
 20
-173.0211869539
 10
365.5739286845
 20
-173.9537539272
 10
363.2770093631
 20
-174.710367464
 10
361.0140509872
 20
-175.2882667636
 10
358.7933108466
 20
-175.6853431341
 10
356.6228921813
 20
-175.9001476869
 10
354.5107146135
 20
-175.9318966234
 10
352.4644852502
 20
-175.7804740953
 10
350.4916705603
 20
-175.4464326269
 10
348.5994691308
 20
-174.9309910993
 10
346.7947853994
 20
-174.2360303028
 10
345.0842044615
 20
-173.3640860739
 10
343.4739680412
 20
-172.3183400425
 10
341.9699517168
 20
-171.1026080226
 10
340.5776434805
 20
-169.7213260884
 10
339.3021237143
 20
-168.1795343879
 10
338.1480466515
 20
-166.4828587518
 10
337.119623394
 20
-164.6374901656
 10
336.2206065467
 20
-162.6501621789
 10
335.4542765248
 20
-160.5281263363
 10
334.8234295833
 20
-158.2791257163
 10
334.3303676143
 20
-155.9113666783
 10
333.9768897474
 20
-153.4334889182
 10
333.7642857851
 20
-150.8545339433
 10
333.6933314962
 20
-148.1839120806
 10
333.7642857851
 20
-145.4313681397
 10
333.9768897474
 20
-142.6069458549
 10
334.3303676143
 20
-139.7209512367
 10
334.8234295833
 20
-136.7839149667
 10
335.4542765248
 20
-133.8065539716
 10
336.2206065467
 20
-130.7997323189
 10
337.119623394
 20
-127.7744215746
 10
338.1480466515
 20
-124.7416607695
 10
339.3021237143
 20
-121.712516119
 10
340.5776434805
 20
-118.6980406434
 10
341.9699517168
 20
-115.7092338368
 10
343.4739680412
 20
-112.7570015311
 10
345.0842044615
 20
-109.8521161019
 10
346.7947853994
 20
-107.0051771609
 10
348.5994691308
 20
-104.2265728798
 10
350.4916705603
 20
-101.5264420841
 10
352.4644852502
 20
-98.9146372583
 10
354.5107146135
 20
-96.4006885951
 10
356.6228921813
 20
-93.9937692204
 10
358.7933108466
 20
-91.702661722
 10
361.0140509872
 20
-89.5357261027
 10
363.2770093631
 20
-87.5008692756
 10
365.5739286845
 20
-85.6055162126
 10
367.896427742
 20
-83.8565828514
 10
370.2360319884
 20
-82.2604508603
 10
372.5842044615
 20
-80.8229443518
 10
374.9323769346
 20
-79.5493086312
 10
377.2719811809
 20
-78.4441910571
 10
379.5944802384
 20
-77.5116240838
 10
381.8913995599
 20
-76.755010547
 10
384.1543579357
 20
-76.1771112474
 10
386.3750980763
 20
-75.7800348769
 10
388.5455167416
 20
-75.5652303241
 10
390.6576943094
 20
-75.5334813876
 10
392.7039236728
 20
-75.6849039157
 10
394.6767383626
 20
-76.0189453841
 10
396.5689397921
 20
-76.5343869117
 10
398.3736235235
 20
-77.2293477083
 10
400.0842044615
 20
-78.1012919372
 10
401.6944408817
 20
-79.1470379685
 10
403.1984572062
 20
-80.3627699884
 10
404.5907654424
 20
-81.7440519226
 10
405.8662852086
 20
-83.2858436231
 10
407.0203622715
 20
-84.9825192592
 10
408.048785529
 20
-86.8278878455
 10
408.9478023762
 20
-88.8152158321
 10
409.7141323981
 20
-90.9372516747
 10
410.3449793396
 20
-93.1862522947
 10
410.8380413087
 20
-95.5540113327
 10
411.1915191755
 20
-98.0318890928
 10
411.4041231378
 20
-100.6108440677
 10
411.4750774267
 20
-103.2814659304
  0
LWPOLYLINE
  5
145
330
1F
100
AcDbEntity
  8
0
  6
Continuous
 62
     7
370
    25
100
AcDbPolyline
 90
       45
 70
   128
 43
0.0
 10
379.6552722733
 20
-186.9739133973
 10
379.5832989986
 20
-188.1775214202
 10
379.3688443429
 20
-189.4397260289
 10
379.0162739845
 20
-190.7348323773
 10
378.5327652391
 20
-192.0364758351
 10
377.9281609505
 20
-193.318158695
 10
377.2147691185
 20
-194.5537895901
 10
376.4071123436
 20
-195.7182146386
 10
375.5216321885
 20
-196.7877295045
 10
374.5763544757
 20
-197.7405619493
 10
373.5905223335
 20
-198.5573150521
 10
372.5842044615
 20
-199.2213620752
 10
371.5778865894
 20
-199.7191849361
 10
370.5920544472
 20
-200.040649397
 10
369.6467767345
 20
-200.1792113684
 10
368.7612965794
 20
-200.1320501281
 10
367.9536398044
 20
-199.9001257432
 10
367.2402479724
 20
-199.4881595251
 10
366.6356436838
 20
-198.9045379181
 10
366.1521349385
 20
-198.1611417751
 10
365.79956458
 20
-197.2731044978
 10
365.5851099243
 20
-196.2585039643
 10
365.5131366496
 20
-195.1379945155
 10
365.5851099243
 20
-193.9343864925
 10
365.79956458
 20
-192.6721818839
 10
366.1521349385
 20
-191.3770755354
 10
366.6356436838
 20
-190.0754320777
 10
367.2402479724
 20
-188.7937492177
 10
367.9536398044
 20
-187.5581183227
 10
368.7612965794
 20
-186.3936932741
 10
369.6467767345
 20
-185.3241784083
 10
370.5920544472
 20
-184.3713459635
 10
371.5778865894
 20
-183.5545928606
 10
372.5842044615
 20
-182.8905458375
 10
373.5905223335
 20
-182.3927229766
 10
374.5763544757
 20
-182.0712585158
 10
375.5216321885
 20
-181.9326965444
 10
376.4071123436
 20
-181.9798577846
 10
377.2147691185
 20
-182.2117821696
 10
377.9281609505
 20
-182.6237483877
 10
378.5327652391
 20
-183.2073699946
 10
379.0162739845
 20
-183.9507661376
 10
379.3688443429
 20
-184.8388034149
 10
379.5832989986
 20
-185.8534039485
 10
379.6552722733
 20
-186.9739133973
  0
LWPOLYLINE
  5
146
330
1F
100
AcDbEntity
  8
0
  6
Continuous
 62
     7
370
    25
100
AcDbPolyline
 90
       45
 70
   128
 43
0.0
 10
436.2238147683
 20
-88.9943239735
 10
436.1518414936
 20
-90.1979319964
 10
435.9373868378
 20
-91.4601366051
 10
435.5848164794
 20
-92.7552429536
 10
435.101307734
 20
-94.0568864113
 10
434.4967034454
 20
-95.3385692712
 10
433.7833116134
 20
-96.5742001663
 10
432.9756548385
 20
-97.7386252148
 10
432.0901746834
 20
-98.8081400807
 10
431.1448969706
 20
-99.7609725255
 10
430.1590648285
 20
-100.5777256284
 10
429.1527469564
 20
-101.2417726515
 10
428.1464290843
 20
-101.7395955124
 10
427.1605969422
 20
-102.0610599732
 10
426.2153192294
 20
-102.1996219446
 10
425.3298390743
 20
-102.1524607044
 10
424.5221822993
 20
-101.9205363194
 10
423.8087904673
 20
-101.5085701013
 10
423.2041861788
 20
-100.9249484944
 10
422.7206774334
 20
-100.1815523514
 10
422.368107075
 20
-99.2935150741
 10
422.1536524192
 20
-98.2789145405
 10
422.0816791445
 20
-97.1584050917
 10
422.1536524192
 20
-95.9547970688
 10
422.368107075
 20
-94.6925924601
 10
422.7206774334
 20
-93.3974861117
 10
423.2041861788
 20
-92.0958426539
 10
423.8087904673
 20
-90.814159794
 10
424.5221822993
 20
-89.5785288989
 10
425.3298390743
 20
-88.4141038504
 10
426.2153192294
 20
-87.3445889845
 10
427.1605969422
 20
-86.3917565397
 10
428.1464290843
 20
-85.5750034369
 10
429.1527469564
 20
-84.9109564138
 10
430.1590648285
 20
-84.4131335529
 10
431.1448969706
 20
-84.091669092
 10
432.0901746834
 20
-83.9531071206
 10
432.9756548385
 20
-84.0002683608
 10
433.7833116134
 20
-84.2321927458
 10
434.4967034454
 20
-84.6441589639
 10
435.101307734
 20
-85.2277805709
 10
435.5848164794
 20
-85.9711767138
 10
435.9373868378
 20
-86.8592139912
 10
436.1518414936
 20
-87.8738145247
 10
436.2238147683
 20
-88.9943239735
  0
LWPOLYLINE
  5
147
330
1F
100
AcDbEntity
  8
0
  6
Continuous
 62
     7
370
    25
100
AcDbPolyline
 90
       45
 70
   128
 43
0.0
 10
339.6552722733
 20
-190.9326805458
 10
339.5832989986
 20
-192.1362885688
 10
339.3688443429
 20
-193.3984931774
 10
339.0162739845
 20
-194.6935995259
 10
338.5327652391
 20
-195.9952429837
 10
337.9281609505
 20
-197.2769258436
 10
337.2147691185
 20
-198.5125567387
 10
336.4071123436
 20
-199.6769817872
 10
335.5216321885
 20
-200.746496653
 10
334.5763544757
 20
-201.6993290978
 10
333.5905223335
 20
-202.5160822007
 10
332.5842044615
 20
-203.1801292238
 10
331.5778865894
 20
-203.6779520847
 10
330.5920544472
 20
-203.9994165455
 10
329.6467767345
 20
-204.1379785169
 10
328.7612965794
 20
-204.0908172767
 10
327.9536398044
 20
-203.8588928917
 10
327.2402479724
 20
-203.4469266737
 10
326.6356436838
 20
-202.8633050667
 10
326.1521349385
 20
-202.1199089237
 10
325.79956458
 20
-201.2318716464
 10
325.5851099243
 20
-200.2172711128
 10
325.5131366496
 20
-199.0967616641
 10
325.5851099243
 20
-197.8931536411
 10
325.79956458
 20
-196.6309490324
 10
326.1521349385
 20
-195.335842684
 10
326.6356436838
 20
-194.0341992262
 10
327.2402479724
 20
-192.7525163663
 10
327.9536398044
 20
-191.5168854712
 10
328.7612965794
 20
-190.3524604227
 10
329.6467767345
 20
-189.2829455568
 10
330.5920544472
 20
-188.330113112
 10
331.5778865894
 20
-187.5133600092
 10
332.5842044615
 20
-186.8493129861
 10
333.5905223335
 20
-186.3514901252
 10
334.5763544757
 20
-186.0300256644
 10
335.5216321885
 20
-185.891463693
 10
336.4071123436
 20
-185.9386249332
 10
337.2147691185
 20
-186.1705493181
 10
337.9281609505
 20
-186.5825155362
 10
338.5327652391
 20
-187.1661371432
 10
339.0162739845
 20
-187.9095332862
 10
339.3688443429
 20
-188.7975705635
 10
339.5832989986
 20
-189.812171097
 10
339.6552722733
 20
-190.9326805458
  0
LWPOLYLINE
  5
148
330
1F
100
AcDbEntity
  8
0
  6
Continuous
 62
     7
370
    25
100
AcDbPolyline
 90
       45
 70
   128
 43
0.0
 10
339.6552722733
 20
-98.5516333138
 10
339.5832989986
 20
-99.7552413368
 10
339.3688443429
 20
-101.0174459454
 10
339.0162739845
 20
-102.3125522939
 10
338.5327652391
 20
-103.6141957517
 10
337.9281609505
 20
-104.8958786116
 10
337.2147691185
 20
-106.1315095067
 10
336.4071123436
 20
-107.2959345552
 10
335.5216321885
 20
-108.365449421
 10
334.5763544757
 20
-109.3182818658
 10
333.5905223335
 20
-110.1350349687
 10
332.5842044615
 20
-110.7990819918
 10
331.5778865894
 20
-111.2969048527
 10
330.5920544472
 20
-111.6183693135
 10
329.6467767345
 20
-111.7569312849
 10
328.7612965794
 20
-111.7097700447
 10
327.9536398044
 20
-111.4778456597
 10
327.2402479724
 20
-111.0658794417
 10
326.6356436838
 20
-110.4822578347
 10
326.1521349385
 20
-109.7388616917
 10
325.79956458
 20
-108.8508244144
 10
325.5851099243
 20
-107.8362238808
 10
325.5131366496
 20
-106.7157144321
 10
325.5851099243
 20
-105.5121064091
 10
325.79956458
 20
-104.2499018004
 10
326.1521349385
 20
-102.954795452
 10
326.6356436838
 20
-101.6531519942
 10
327.2402479724
 20
-100.3714691343
 10
327.9536398044
 20
-99.1358382392
 10
328.7612965794
 20
-97.9714131907
 10
329.6467767345
 20
-96.9018983248
 10
330.5920544472
 20
-95.94906588
 10
331.5778865894
 20
-95.1323127772
 10
332.5842044615
 20
-94.4682657541
 10
333.5905223335
 20
-93.9704428932
 10
334.5763544757
 20
-93.6489784323
 10
335.5216321885
 20
-93.510416461
 10
336.4071123436
 20
-93.5575777012
 10
337.2147691185
 20
-93.7895020861
 10
337.9281609505
 20
-94.2014683042
 10
338.5327652391
 20
-94.7850899112
 10
339.0162739845
 20
-95.5284860542
 10
339.3688443429
 20
-96.4165233315
 10
339.5832989986
 20
-97.431123865
 10
339.6552722733
 20
-98.5516333138
  0
LINE
  5
149
330
1F
100
AcDbEntity
  8
0
  6
Continuous
 62
     7
370
    25
100
AcDbLine
 10
417.7909455395
 20
-141.4454684326
 30
0.0
 11
417.7021365035
 21
-141.396184721
 31
0.0
  0
ARC
  5
14A
330
1F
100
AcDbEntity
  8
0
  6
Continuous
 62
     7
370
    25
100
AcDbCircle
 10
391.1912471132
 20
-95.1338943011
 30
0.0
 40
18.19593338626205
100
AcDbArc
 50
47.6226655144
 51
72.4091385445
  0
ARC
  5
14B
330
1F
100
AcDbEntity
  8
0
  6
Continuous
 62
     7
370
    25
100
AcDbCircle
 10
355.3915020541
 20
-157.1480384552
 30
0.0
 40
18.19584478367542
100
AcDbArc
 50
227.8339101643
 51
252.447417765
  0
LINE
  5
14C
330
1F
100
AcDbEntity
  8
0
  6
Continuous
 62
     7
370
    25
100
AcDbLine
 10
434.3594880344
 20
-85.6901288271
 30
0.0
 11
434.2706789984
 21
-85.6408451155
 31
0.0
  0
LINE
  5
14D
330
1F
100
AcDbEntity
  8
0
  6
Continuous
 62
     7
370
    25
100
AcDbLine
 10
377.7909455395
 20
-183.6697182509
 30
0.0
 11
377.7021365035
 21
-183.6204345393
 31
0.0
  0
LINE
  5
14E
330
1F
100
AcDbEntity
  8
0
  6
Continuous
 62
     7
370
    25
100
AcDbLine
 10
417.7909455395
 20
-49.0644212006
 30
0.0
 11
417.7021365035
 21
-49.015137489
 31
0.0
  0
LINE
  5
14F
330
1F
100
AcDbEntity
  8
0
  6
Continuous
 62
     7
370
    25
100
AcDbLine
 10
337.7909455395
 20
-187.6284853994
 30
0.0
 11
337.7021365035
 21
-187.5792016879
 31
0.0
  0
LINE
  5
150
330
1F
100
AcDbEntity
  8
0
  6
Continuous
 62
     7
370
    25
100
AcDbLine
 10
377.7909455395
 20
-53.0231883491
 30
0.0
 11
377.7021365035
 21
-52.9739046376
 31
0.0
  0
LINE
  5
151
330
1F
100
AcDbEntity
  8
0
  6
Continuous
 62
     7
370
    25
100
AcDbLine
 10
321.2224030446
 20
-151.0027777729
 30
0.0
 11
321.1335940086
 21
-150.9534940614
 31
0.0
  0
LINE
  5
152
330
1F
100
AcDbEntity
  8
0
  6
Continuous
 62
     7
370
    25
100
AcDbLine
 10
337.7909455395
 20
-95.2474381674
 30
0.0
 11
337.7021365035
 21
-95.1981544559
 31
0.0
  0
LWPOLYLINE
  5
153
330
1F
100
AcDbEntity
  8
0
  6
Continuous
 62
     1
370
    25
100
AcDbPolyline
 90
       52
 70
   128
 43
0.0
 10
445.4162029237
 20
-84.5040793585
 10
445.3456089925
 20
-88.228902318
 10
445.1339653897
 20
-92.0279397797
 10
444.7816864177
 20
-95.8937549494
 10
444.2894616792
 20
-99.8187803124
 10
443.658254727
 20
-103.7953324472
 10
442.8893011786
 20
-107.8156270662
 10
441.9841062965
 20
-111.871794254
 10
440.9444420424
 20
-115.9558938727
 10
439.7723436076
 20
-120.0599311057
 10
438.4701054301
 20
-124.1758721072
 10
437.0402767021
 20
-128.2956597296
 10
435.4856563806
 20
-132.411229295
 10
433.8092877079
 20
-136.5145243828
 10
432.0144522543
 20
-140.5975126001
 10
430.1046634945
 20
-144.6522013058
 10
428.0836599297
 20
-148.6706532563
 10
425.9553977693
 20
-152.6450021432
 10
423.7240431864
 20
-156.567467992
 10
421.3939641625
 20
-160.4303723915
 10
418.9697219365
 20
-164.226153525
 10
416.4560620766
 20
-167.9473809726
 10
413.8579051898
 20
-171.5867702569
 10
411.1803372904
 20
-175.1371971025
 10
408.4285998433
 20
-178.591711382
 10
405.6080795036
 20
-181.9435507216
 10
402.7242975725
 20
-185.1861537383
 10
399.7828991885
 20
-188.3131728845
 10
396.789642277
 20
-191.3184868733
 10
393.7503862791
 20
-194.1962126614
 10
390.671080681
 20
-196.9407169656
 10
387.557753368
 20
-199.5466272897
 10
384.4164988247
 20
-202.008842442
 10
381.2534662042
 20
-204.3225425205
 10
378.0748472915
 20
-206.4831983489
 10
374.8868643823
 20
-208.4865803417
 10
371.695758103
 20
-210.3287667847
 10
368.5077751938
 20
-212.0061515115
 10
365.3291562811
 20
-213.5154509626
 10
362.1661236606
 20
-214.8537106135
 10
359.0248691173
 20
-216.0183107581
 10
355.9115418043
 20
-217.0069716369
 10
352.8322362062
 20
-217.8177578998
 10
349.7929802083
 20
-218.4490823946
 10
346.7997232968
 20
-218.899709274
 10
343.8583249128
 20
-219.1687564147
 10
340.9745429817
 20
-219.2556971443
 10
338.154022642
 20
-219.1603612723
 10
335.4022851949
 20
-218.882935423
 10
332.7247172955
 20
-218.4239626706
 10
330.1265604088
 20
-217.7843414759
 10
330.0385292707
 20
-217.7591013181
  0
LWPOLYLINE
  5
154
330
1F
100
AcDbEntity
  8
0
  6
Continuous
 62
     1
370
    25
100
AcDbPolyline
 90
       16
 70
   128
 43
0.0
 10
431.0315299605
 20
-42.8979944401
 10
432.0144522543
 20
-43.8839780806
 10
433.8092877079
 20
-45.8946933928
 10
435.4856563806
 20
-48.0624944091
 10
437.0402767021
 20
-50.3831375574
 10
438.4701054301
 20
-52.8520800697
 10
439.7723436076
 20
-55.464488875
 10
440.9444420424
 20
-58.2152500606
 10
441.9841062965
 20
-61.098978882
 10
442.8893011786
 20
-64.1100303049
 10
443.658254727
 20
-67.2425100546
 10
444.2894616792
 20
-70.4902861549
 10
444.7816864177
 20
-73.8470009315
 10
445.1339653897
 20
-77.3060834577
 10
445.3456089925
 20
-80.8607624171
 10
445.4162029237
 20
-84.5040793585
  0
LWPOLYLINE
  5
155
330
1F
100
AcDbEntity
  8
0
  6
Continuous
 62
     1
370
    25
100
AcDbPolyline
 90
       16
 70
   128
 43
0.0
 10
458.144124985
 20
-91.8517523649
 10
458.0735310538
 20
-88.2084354235
 10
457.8618874511
 20
-84.6537564642
 10
457.5096084791
 20
-81.1946739379
 10
457.0173837405
 20
-77.8379591613
 10
456.3861767884
 20
-74.590183061
 10
455.61722324
 20
-71.4577033113
 10
454.7120283579
 20
-68.4466518884
 10
453.6723641037
 20
-65.562923067
 10
452.500265669
 20
-62.8121618814
 10
451.1980274914
 20
-60.1997530761
 10
449.7681987635
 20
-57.7308105638
 10
448.213578442
 20
-55.4101674155
 10
446.5372097692
 20
-53.2423663992
 10
444.7423743156
 20
-51.231651087
 10
443.3122123356
 20
-49.8212468969
  0
LWPOLYLINE
  5
156
330
1F
100
AcDbEntity
  8
0
  6
Continuous
 62
     1
370
    25
100
AcDbPolyline
 90
       52
 70
   128
 43
0.0
 10
342.6747708721
 20
-225.0802304393
 10
342.8544824701
 20
-225.1320144823
 10
345.4526393569
 20
-225.771635677
 10
348.1302072562
 20
-226.2306084294
 10
350.8819447034
 20
-226.5080342787
 10
353.702465043
 20
-226.6033701507
 10
356.5862469742
 20
-226.5164294211
 10
359.5276453582
 20
-226.2473822804
 10
362.5209022696
 20
-225.796755401
 10
365.5601582676
 20
-225.1654309062
 10
368.6394638657
 20
-224.3546446433
 10
371.7527911786
 20
-223.3659837645
 10
374.894045722
 20
-222.2013836199
 10
378.0570783425
 20
-220.863123969
 10
381.2356972552
 20
-219.3538245179
 10
384.4236801643
 20
-217.6764397911
 10
387.6147864437
 20
-215.8342533481
 10
390.8027693529
 20
-213.8308713553
 10
393.9813882656
 20
-211.6702155269
 10
397.1444208861
 20
-209.3565154484
 10
400.2856754294
 20
-206.8943002961
 10
403.3990027423
 20
-204.288389972
 10
406.4783083404
 20
-201.5438856679
 10
409.5175643384
 20
-198.6661598797
 10
412.5108212499
 20
-195.6608458909
 10
415.4522196339
 20
-192.5338267447
 10
418.336001565
 20
-189.291223728
 10
421.1565219046
 20
-185.9393843884
 10
423.9082593518
 20
-182.4848701089
 10
426.5858272512
 20
-178.9344432633
 10
429.1839841379
 20
-175.295053979
 10
431.6976439979
 20
-171.5738265314
 10
434.1218862238
 20
-167.7780453979
 10
436.4519652478
 20
-163.9151409984
 10
438.6833198307
 20
-159.9926751496
 10
440.8115819911
 20
-156.0183262627
 10
442.8325855558
 20
-151.9998743122
 10
444.7423743156
 20
-147.9451856065
 10
446.5372097692
 20
-143.8621973892
 10
448.213578442
 20
-139.7589023014
 10
449.7681987635
 20
-135.643332736
 10
451.1980274914
 20
-131.5235451136
 10
452.500265669
 20
-127.4076041121
 10
453.6723641037
 20
-123.3035668791
 10
454.7120283579
 20
-119.2194672604
 10
455.61722324
 20
-115.1633000726
 10
456.3861767884
 20
-111.1430054536
 10
457.0173837405
 20
-107.1664533188
 10
457.5096084791
 20
-103.2414279558
 10
457.8618874511
 20
-99.3756127861
 10
458.0735310538
 20
-95.5765753244
 10
458.144124985
 20
-91.8517523649
  0
LWPOLYLINE
  5
157
330
1F
100
AcDbEntity
  8
0
  6
Continuous
 62
     1
370
    25
100
AcDbPolyline
 90
       23
 70
   128
 43
0.0
 10
417.7021365035
 20
-141.396184721
 10
417.2591760447
 20
-141.2037327795
 10
416.473291758
 20
-141.0386841655
 10
415.6163272846
 20
-141.0568373442
 10
414.7074257949
 20
-141.2577868036
 10
413.7668906461
 20
-141.6370436648
 10
412.8157318392
 20
-142.1861359562
 10
411.8751966904
 20
-142.8927978634
 10
410.9662952007
 20
-143.7412437271
 10
410.1093307273
 20
-144.7125206687
 10
409.3234464406
 20
-145.7849319664
 10
408.6261976969
 20
-146.9345217238
 10
408.0331598809
 20
-148.1356100054
 10
407.5575804775
 20
-149.3613664837
 10
407.2100831447
 20
-150.5844097846
 10
406.9984303986
 20
-151.7774191416
 10
406.927350212
 20
-152.9137446972
 10
406.9984303986
 20
-153.9680028161
 10
407.2100831447
 20
-154.9166431142
 10
407.5575804775
 20
-155.7384745346
 10
408.0331598809
 20
-156.4151387215
 10
408.6261976969
 20
-156.9315201152
 10
408.7481730208
 20
-157.0087433649
  0
LWPOLYLINE
  5
158
330
1F
100
AcDbEntity
  8
0
  6
Continuous
 62
     1
370
    25
100
AcDbPolyline
 90
       50
 70
   128
 43
0.0
 10
396.6903830745
 20
-77.7888230854
 10
396.5745952952
 20
-77.7523899909
 10
394.6862951185
 20
-77.2683670535
 10
392.7184041965
 20
-76.9661531229
 10
390.6782432128
 20
-76.8468724546
 10
388.5734017002
 20
-76.9109687807
 10
386.4117098073
 20
-77.1582036585
 10
384.2012091701
 20
-77.587657358
 10
381.9501229959
 20
-78.1977322834
 10
379.6668254734
 20
-78.9861589158
 10
377.3598106192
 20
-79.9500042563
 10
375.03766068
 20
-81.085682737
 10
372.7090142063
 20
-82.3889695594
 10
370.3825339158
 20
-83.8550164108
 10
368.0668744679
 20
-85.4783695007
 10
365.7706502681
 20
-87.252989849
 10
363.502403421
 20
-89.1722757514
 10
361.2705719539
 20
-91.2290873383
 10
359.0834584265
 20
-93.4157731355
 10
356.9491990448
 20
-95.7241985282
 10
354.8757333938
 20
-98.1457760224
 10
352.870774902
 20
-100.6714971907
 10
350.9417821465
 20
-103.2919661844
 10
349.0959311072
 20
-105.9974346868
 10
347.3400884712
 20
-108.7778381775
 10
345.6807860884
 20
-111.6228333727
 10
344.1241966726
 20
-114.5218367035
 10
342.6761108387
 20
-117.4640636871
 10
341.3419155611
 20
-120.4385690458
 10
340.1265741339
 20
-123.4342874244
 10
339.034607707
 20
-126.4400745538
 10
338.0700784673
 20
-129.4447487084
 10
337.2365745268
 20
-132.4371323029
 10
336.537196575
 20
-135.406093474
 10
335.9745463437
 20
-138.3405874909
 10
335.5507169289
 20
-141.2296978433
 10
335.2672850037
 20
-144.0626768509
 10
335.1253049536
 20
-146.8289856457
 10
335.1253049536
 20
-149.5183333773
 10
335.2672850037
 20
-152.1207154954
 10
335.5507169289
 20
-154.6264509678
 10
335.9745463437
 20
-157.0262182938
 10
336.537196575
 20
-159.3110901814
 10
337.2365745268
 20
-161.472566757
 10
338.0700784673
 20
-163.502607186
 10
339.034607707
 20
-165.3936595844
 10
340.1265741339
 20
-167.1386891133
 10
341.3419155611
 20
-168.7312041481
 10
342.6761108387
 20
-170.1652804283
 10
343.1769584131
 20
-170.6348353705
  0
LWPOLYLINE
  5
159
330
1F
100
AcDbEntity
  8
0
  6
Continuous
 62
     1
370
    25
100
AcDbPolyline
 90
       46
 70
   128
 43
0.0
 10
353.4249628635
 20
-175.2731173859
 10
352.8544961953
 20
-174.4863621197
 10
351.7625297684
 20
-172.7413325908
 10
350.7980005286
 20
-170.8502801924
 10
349.9644965881
 20
-168.8202397634
 10
349.2651186363
 20
-166.6587631878
 10
348.7024684051
 20
-164.3738913002
 10
348.2786389902
 20
-161.9741239742
 10
347.9952070651
 20
-159.4683885019
 10
347.8532270149
 20
-156.8660063837
 10
347.8532270149
 20
-154.1766586521
 10
347.9952070651
 20
-151.4103498573
 10
348.2786389902
 20
-148.5773708498
 10
348.7024684051
 20
-145.6882604973
 10
349.2651186363
 20
-142.7537664804
 10
349.9644965881
 20
-139.7848053093
 10
350.7980005286
 20
-136.7924217148
 10
351.7625297684
 20
-133.7877475602
 10
352.8544961953
 20
-130.7819604308
 10
354.0698376225
 20
-127.7862420522
 10
355.4040329
 20
-124.8117366935
 10
356.8521187339
 20
-121.8695097099
 10
358.4087081497
 20
-118.9705063791
 10
360.0680105326
 20
-116.1255111839
 10
361.8238531686
 20
-113.3451076932
 10
363.6697042079
 20
-110.6396391908
 10
365.5986969633
 20
-108.0191701971
 10
367.6036554552
 20
-105.4934490288
 10
369.6771211062
 20
-103.0718715346
 10
371.8113804879
 20
-100.7634461419
 10
373.9984940153
 20
-98.5767603447
 10
376.2303254823
 20
-96.5199487578
 10
378.4985723294
 20
-94.6006628554
 10
380.7947965293
 20
-92.8260425071
 10
383.1104559771
 20
-91.2026894172
 10
385.4369362676
 20
-89.7366425658
 10
387.7655827414
 20
-88.4333557434
 10
390.0877326805
 20
-87.2976772627
 10
392.3947475348
 20
-86.3338319222
 10
394.6780450573
 20
-85.5454052898
 10
396.9291312314
 20
-84.9353303644
 10
399.1396318687
 20
-84.5058766649
 10
401.3013237615
 20
-84.2586417871
 10
403.4061652742
 20
-84.194545461
 10
405.4463262579
 20
-84.3138261293
 10
405.9128279986
 20
-84.3680858176
  0
LWPOLYLINE
  5
15A
330
1F
100
AcDbEntity
  8
0
  6
Continuous
 62
     1
370
    25
100
AcDbPolyline
 90
       23
 70
   128
 43
0.0
 10
434.2706789984
 20
-85.6408451155
 10
433.8277185396
 20
-85.448393174
 10
433.0418342529
 20
-85.28334456
 10
432.1848697796
 20
-85.3014977388
 10
431.2759682898
 20
-85.5024471981
 10
430.335433141
 20
-85.8817040593
 10
429.3842743342
 20
-86.4307963507
 10
428.4437391854
 20
-87.1374582579
 10
427.5348376956
 20
-87.9859041216
 10
426.6778732222
 20
-88.9571810632
 10
425.8919889355
 20
-90.0295923609
 10
425.1947401918
 20
-91.1791821183
 10
424.6017023758
 20
-92.3802703999
 10
424.1261229724
 20
-93.6060268782
 10
423.7786256396
 20
-94.8290701791
 10
423.5669728935
 20
-96.0220795361
 10
423.4958927069
 20
-97.1584050917
 10
423.5669728935
 20
-98.2126632107
 10
423.7786256396
 20
-99.1613035087
 10
424.1261229724
 20
-99.9831349291
 10
424.6017023758
 20
-100.659799116
 10
425.1947401918
 20
-101.1761805097
 10
425.3167155157
 20
-101.2534037594
  0
LWPOLYLINE
  5
15B
330
1F
100
AcDbEntity
  8
0
  6
Continuous
 62
     1
370
    25
100
AcDbPolyline
 90
       23
 70
   128
 43
0.0
 10
377.7021365035
 20
-183.6204345393
 10
377.2591760447
 20
-183.4279825978
 10
376.473291758
 20
-183.2629339838
 10
375.6163272846
 20
-183.2810871625
 10
374.7074257949
 20
-183.4820366219
 10
373.7668906461
 20
-183.8612934831
 10
372.8157318392
 20
-184.4103857745
 10
371.8751966904
 20
-185.1170476817
 10
370.9662952007
 20
-185.9654935454
 10
370.1093307273
 20
-186.936770487
 10
369.3234464406
 20
-188.0091817847
 10
368.6261976969
 20
-189.1587715421
 10
368.0331598809
 20
-190.3598598237
 10
367.5575804775
 20
-191.585616302
 10
367.2100831447
 20
-192.8086596029
 10
366.9984303986
 20
-194.0016689599
 10
366.927350212
 20
-195.1379945155
 10
366.9984303986
 20
-196.1922526344
 10
367.2100831447
 20
-197.1408929324
 10
367.5575804775
 20
-197.9627243529
 10
368.0331598809
 20
-198.6393885398
 10
368.6261976969
 20
-199.1557699335
 10
368.7481730208
 20
-199.2329931832
  0
LWPOLYLINE
  5
15C
330
1F
100
AcDbEntity
  8
0
  6
Continuous
 62
     1
370
    25
100
AcDbPolyline
 90
       23
 70
   128
 43
0.0
 10
417.7021365035
 20
-49.015137489
 10
417.2591760447
 20
-48.8226855475
 10
416.473291758
 20
-48.6576369335
 10
415.6163272846
 20
-48.6757901122
 10
414.7074257949
 20
-48.8767395716
 10
413.7668906461
 20
-49.2559964328
 10
412.8157318393
 20
-49.8050887242
 10
411.8751966904
 20
-50.5117506314
 10
410.9662952007
 20
-51.3601964951
 10
410.1093307273
 20
-52.3314734367
 10
409.3234464406
 20
-53.4038847344
 10
408.6261976969
 20
-54.5534744918
 10
408.0331598809
 20
-55.7545627734
 10
407.5575804775
 20
-56.9803192517
 10
407.2100831447
 20
-58.2033625526
 10
406.9984303986
 20
-59.3963719096
 10
406.927350212
 20
-60.5326974652
 10
406.9984303986
 20
-61.5869555841
 10
407.2100831447
 20
-62.5355958822
 10
407.5575804775
 20
-63.3574273026
 10
408.0331598809
 20
-64.0340914895
 10
408.6261976969
 20
-64.5504728832
 10
408.7481730208
 20
-64.6276961329
  0
LWPOLYLINE
  5
15D
330
1F
100
AcDbEntity
  8
0
  6
Continuous
 62
     1
370
    25
100
AcDbPolyline
 90
       23
 70
   128
 43
0.0
 10
337.7021365035
 20
-187.5792016879
 10
337.2591760447
 20
-187.3867497463
 10
336.473291758
 20
-187.2217011324
 10
335.6163272846
 20
-187.2398543111
 10
334.7074257949
 20
-187.4408037705
 10
333.7668906461
 20
-187.8200606317
 10
332.8157318392
 20
-188.3691529231
 10
331.8751966904
 20
-189.0758148303
 10
330.9662952007
 20
-189.924260694
 10
330.1093307273
 20
-190.8955376356
 10
329.3234464406
 20
-191.9679489332
 10
328.6261976969
 20
-193.1175386906
 10
328.0331598809
 20
-194.3186269722
 10
327.5575804775
 20
-195.5443834506
 10
327.2100831447
 20
-196.7674267514
 10
326.9984303986
 20
-197.9604361085
 10
326.927350212
 20
-199.0967616641
 10
326.9984303986
 20
-200.151019783
 10
327.2100831447
 20
-201.099660081
 10
327.5575804775
 20
-201.9214915014
 10
328.0331598809
 20
-202.5981556884
 10
328.6261976969
 20
-203.114537082
 10
328.7481730208
 20
-203.1917603318
  0
LWPOLYLINE
  5
15E
330
1F
100
AcDbEntity
  8
0
  6
Continuous
 62
     1
370
    25
100
AcDbPolyline
 90
       23
 70
   128
 43
0.0
 10
377.7021365035
 20
-52.9739046376
 10
377.2591760447
 20
-52.7814526961
 10
376.473291758
 20
-52.6164040821
 10
375.6163272846
 20
-52.6345572608
 10
374.7074257949
 20
-52.8355067202
 10
373.7668906461
 20
-53.2147635814
 10
372.8157318393
 20
-53.7638558728
 10
371.8751966904
 20
-54.47051778
 10
370.9662952007
 20
-55.3189636437
 10
370.1093307273
 20
-56.2902405853
 10
369.3234464406
 20
-57.3626518829
 10
368.6261976969
 20
-58.5122416403
 10
368.0331598809
 20
-59.7133299219
 10
367.5575804775
 20
-60.9390864003
 10
367.2100831447
 20
-62.1621297011
 10
366.9984303986
 20
-63.3551390582
 10
366.927350212
 20
-64.4914646138
 10
366.9984303986
 20
-65.5457227327
 10
367.2100831447
 20
-66.4943630307
 10
367.5575804775
 20
-67.3161944511
 10
368.0331598809
 20
-67.9928586381
 10
368.6261976969
 20
-68.5092400317
 10
368.7481730208
 20
-68.5864632815
  0
LWPOLYLINE
  5
15F
330
1F
100
AcDbEntity
  8
0
  6
Continuous
 62
     1
370
    25
100
AcDbPolyline
 90
       23
 70
   128
 43
0.0
 10
321.1335940086
 20
-150.9534940614
 10
320.6906335498
 20
-150.7610421198
 10
319.9047492631
 20
-150.5959935059
 10
319.0477847897
 20
-150.6141466846
 10
318.1388832999
 20
-150.815096144
 10
317.1983481511
 20
-151.1943530051
 10
316.2471893443
 20
-151.7434452965
 10
315.3066541955
 20
-152.4501072037
 10
314.3977527058
 20
-153.2985530674
 10
313.5407882324
 20
-154.2698300091
 10
312.7549039457
 20
-155.3422413067
 10
312.0576552019
 20
-156.4918310641
 10
311.4646173859
 20
-157.6929193457
 10
310.9890379825
 20
-158.9186758241
 10
310.6415406497
 20
-160.1417191249
 10
310.4298879037
 20
-161.334728482
 10
310.358807717
 20
-162.4710540375
 10
310.4298879037
 20
-163.5253121565
 10
310.6415406497
 20
-164.4739524545
 10
310.9890379825
 20
-165.2957838749
 10
311.4646173859
 20
-165.9724480618
 10
312.0576552019
 20
-166.4888294555
 10
312.1796305259
 20
-166.5660527052
  0
LWPOLYLINE
  5
160
330
1F
100
AcDbEntity
  8
0
  6
Continuous
 62
     1
370
    25
100
AcDbPolyline
 90
       23
 70
   128
 43
0.0
 10
337.7021365035
 20
-95.1981544559
 10
337.2591760447
 20
-95.0057025143
 10
336.473291758
 20
-94.8406539004
 10
335.6163272846
 20
-94.8588070791
 10
334.7074257949
 20
-95.0597565385
 10
333.7668906461
 20
-95.4390133996
 10
332.8157318393
 20
-95.9881056911
 10
331.8751966904
 20
-96.6947675983
 10
330.9662952007
 20
-97.543213462
 10
330.1093307273
 20
-98.5144904036
 10
329.3234464406
 20
-99.5869017012
 10
328.6261976969
 20
-100.7364914586
 10
328.0331598809
 20
-101.9375797402
 10
327.5575804775
 20
-103.1633362186
 10
327.2100831447
 20
-104.3863795194
 10
326.9984303986
 20
-105.5793888765
 10
326.927350212
 20
-106.7157144321
 10
326.9984303986
 20
-107.769972551
 10
327.2100831447
 20
-108.718612849
 10
327.5575804775
 20
-109.5404442694
 10
328.0331598809
 20
-110.2171084564
 10
328.6261976969
 20
-110.73348985
 10
328.7481730208
 20
-110.8107130998
  0
ENDSEC
  0
SECTION
  2
OBJECTS
  0
DICTIONARY
  5
C
330
0
100
AcDbDictionary
281
     1
  3
ACAD_GROUP
350
D
  3
ACAD_LAYOUT
350
1A
  3
ACAD_MLINESTYLE
350
17
  3
ACAD_PLOTSETTINGS
350
19
  3
ACAD_PLOTSTYLENAME
350
E
  3
ACAD_SCALELIST
350
47
  3
DWGPROPS
350
161
  0
DICTIONARY
  5
D
102
{ACAD_REACTORS
330
C
102
}
330
C
100
AcDbDictionary
281
     1
  0
DICTIONARY
  5
1A
102
{ACAD_REACTORS
330
C
102
}
330
C
100
AcDbDictionary
281
     1
  3
Layout1
350
1E
  3
Layout2
350
26
  3
Model
350
22
  0
DICTIONARY
  5
17
102
{ACAD_REACTORS
330
C
102
}
330
C
100
AcDbDictionary
281
     1
  3
Standard
350
18
  0
DICTIONARY
  5
19
102
{ACAD_REACTORS
330
C
102
}
330
C
100
AcDbDictionary
281
     1
  0
ACDBDICTIONARYWDFLT
  5
E
102
{ACAD_REACTORS
330
C
102
}
330
C
100
AcDbDictionary
281
     1
  3
Normal
350
F
100
AcDbDictionaryWithDefault
340
F
  0
DICTIONARY
  5
47
102
{ACAD_REACTORS
330
C
102
}
330
C
100
AcDbDictionary
281
     1
  3
A0
350
48
  3
A1
350
49
  3
A2
350
4A
  3
A3
350
4B
  3
A4
350
4C
  3
A5
350
4D
  3
A6
350
4E
  3
A7
350
4F
  3
A8
350
50
  3
A9
350
51
  3
B0
350
52
  3
B1
350
53
  3
B2
350
54
  3
B3
350
55
  3
B4
350
56
  3
B5
350
57
  3
B6
350
58
  3
B7
350
59
  3
B8
350
5A
  3
B9
350
5B
  3
C0
350
5C
  3
C1
350
5D
  3
C2
350
5E
  3
C3
350
5F
  3
C4
350
60
  3
C5
350
61
  3
C6
350
62
  3
C7
350
63
  3
C8
350
64
  3
C9
350
65
  3
D0
350
66
  3
D1
350
67
  3
D2
350
68
  0
XRECORD
  5
161
102
{ACAD_REACTORS
330
C
102
}
330
C
100
AcDbXrecord
280
     1
  1
DWGPROPS COOKIE
  2

  3

  4

  6

  7

  8
b.kav
  9

300
=
301
=
302
=
303
=
304
=
305
=
306
=
307
=
308
=
309
=
 40
0.0
 41
2459741.467448692
 42
2459741.467450648
  1

 90
        0
  0
LAYOUT
  5
1E
102
{ACAD_REACTORS
330
1A
102
}
330
1A
100
AcDbPlotSettings
  1

  2
none_device
  4

  6

 40
0.0
 41
0.0
 42
0.0
 43
0.0
 44
0.0
 45
0.0
 46
0.0
 47
0.0
 48
0.0
 49
0.0
140
0.0
141
0.0
142
1.0
143
1.0
 70
   688
 72
     1
 73
     0
 74
     5
  7

 75
    16
147
1.0
148
0.0
149
0.0
100
AcDbLayout
  1
Layout1
 70
     1
 71
     1
 10
0.0
 20
0.0
 11
420.0
 21
297.0
 12
0.0
 22
0.0
 32
0.0
 14
1.0000000000E+20
 24
1.0000000000E+20
 34
1.0000000000E+20
 15
-1.0000000000E+20
 25
-1.0000000000E+20
 35
-1.0000000000E+20
146
0.0
 13
0.0
 23
0.0
 33
0.0
 16
1.0
 26
0.0
 36
0.0
 17
0.0
 27
1.0
 37
0.0
 76
     0
330
1B
  0
LAYOUT
  5
26
102
{ACAD_REACTORS
330
1A
102
}
330
1A
100
AcDbPlotSettings
  1

  2
none_device
  4

  6

 40
0.0
 41
0.0
 42
0.0
 43
0.0
 44
0.0
 45
0.0
 46
0.0
 47
0.0
 48
0.0
 49
0.0
140
0.0
141
0.0
142
1.0
143
1.0
 70
   688
 72
     1
 73
     0
 74
     5
  7

 75
    16
147
1.0
148
0.0
149
0.0
100
AcDbLayout
  1
Layout2
 70
     1
 71
     2
 10
0.0
 20
0.0
 11
0.0
 21
0.0
 12
0.0
 22
0.0
 32
0.0
 14
0.0
 24
0.0
 34
0.0
 15
0.0
 25
0.0
 35
0.0
146
0.0
 13
0.0
 23
0.0
 33
0.0
 16
1.0
 26
0.0
 36
0.0
 17
0.0
 27
1.0
 37
0.0
 76
     0
330
23
  0
LAYOUT
  5
22
102
{ACAD_REACTORS
330
1A
102
}
330
1A
100
AcDbPlotSettings
  1

  2
none_device
  4
Letter_(8.50_x_11.00_Inches)
  6

 40
6.35
 41
6.35
 42
6.35000508
 43
6.35000508
 44
215.9
 45
279.4
 46
0.0
 47
0.0
 48
0.0
 49
0.0
140
0.0
141
0.0
142
1.0
143
1.0
 70
  1712
 72
     1
 73
     0
 74
     0
  7

 75
     0
147
1.0
148
0.0
149
0.0
100
AcDbLayout
  1
Model
 70
     1
 71
     0
 10
0.0
 20
0.0
 11
279.4
 21
215.9
 12
0.0
 22
0.0
 32
0.0
 14
0.0
 24
0.0
 34
0.0
 15
279.4
 25
215.9
 35
0.0
146
0.0
 13
0.0
 23
0.0
 33
0.0
 16
1.0
 26
0.0
 36
0.0
 17
0.0
 27
1.0
 37
0.0
 76
     0
330
1F
331
29
  0
MLINESTYLE
  5
18
102
{ACAD_REACTORS
330
17
102
}
330
17
100
AcDbMlineStyle
  2
Standard
 70
     0
  3

 62
   256
 51
90.0
 52
90.0
 71
     2
 49
0.5
 62
   256
  6
BYLAYER
 49
-0.5
 62
   256
  6
BYLAYER
  0
ACDBPLACEHOLDER
  5
F
102
{ACAD_REACTORS
330
E
102
}
330
E
  0
SCALE
  5
48
102
{ACAD_REACTORS
330
47
102
}
330
47
100
AcDbScale
 70
     0
300
1:1
140
1.0
141
1.0
290
     1
  0
SCALE
  5
49
102
{ACAD_REACTORS
330
47
102
}
330
47
100
AcDbScale
 70
     0
300
1:2
140
1.0
141
2.0
290
     0
  0
SCALE
  5
4A
102
{ACAD_REACTORS
330
47
102
}
330
47
100
AcDbScale
 70
     0
300
1:4
140
1.0
141
4.0
290
     0
  0
SCALE
  5
4B
102
{ACAD_REACTORS
330
47
102
}
330
47
100
AcDbScale
 70
     0
300
1:5
140
1.0
141
5.0
290
     0
  0
SCALE
  5
4C
102
{ACAD_REACTORS
330
47
102
}
330
47
100
AcDbScale
 70
     0
300
1:8
140
1.0
141
8.0
290
     0
  0
SCALE
  5
4D
102
{ACAD_REACTORS
330
47
102
}
330
47
100
AcDbScale
 70
     0
300
1:10
140
1.0
141
10.0
290
     0
  0
SCALE
  5
4E
102
{ACAD_REACTORS
330
47
102
}
330
47
100
AcDbScale
 70
     0
300
1:16
140
1.0
141
16.0
290
     0
  0
SCALE
  5
4F
102
{ACAD_REACTORS
330
47
102
}
330
47
100
AcDbScale
 70
     0
300
1:20
140
1.0
141
20.0
290
     0
  0
SCALE
  5
50
102
{ACAD_REACTORS
330
47
102
}
330
47
100
AcDbScale
 70
     0
300
1:30
140
1.0
141
30.0
290
     0
  0
SCALE
  5
51
102
{ACAD_REACTORS
330
47
102
}
330
47
100
AcDbScale
 70
     0
300
1:40
140
1.0
141
40.0
290
     0
  0
SCALE
  5
52
102
{ACAD_REACTORS
330
47
102
}
330
47
100
AcDbScale
 70
     0
300
1:50
140
1.0
141
50.0
290
     0
  0
SCALE
  5
53
102
{ACAD_REACTORS
330
47
102
}
330
47
100
AcDbScale
 70
     0
300
1:100
140
1.0
141
100.0
290
     0
  0
SCALE
  5
54
102
{ACAD_REACTORS
330
47
102
}
330
47
100
AcDbScale
 70
     0
300
2:1
140
2.0
141
1.0
290
     0
  0
SCALE
  5
55
102
{ACAD_REACTORS
330
47
102
}
330
47
100
AcDbScale
 70
     0
300
4:1
140
4.0
141
1.0
290
     0
  0
SCALE
  5
56
102
{ACAD_REACTORS
330
47
102
}
330
47
100
AcDbScale
 70
     0
300
8:1
140
8.0
141
1.0
290
     0
  0
SCALE
  5
57
102
{ACAD_REACTORS
330
47
102
}
330
47
100
AcDbScale
 70
     0
300
10:1
140
10.0
141
1.0
290
     0
  0
SCALE
  5
58
102
{ACAD_REACTORS
330
47
102
}
330
47
100
AcDbScale
 70
     0
300
100:1
140
100.0
141
1.0
290
     0
  0
SCALE
  5
59
102
{ACAD_REACTORS
330
47
102
}
330
47
100
AcDbScale
 70
     0
300
1/128" = 1'-0"
140
0.0078125
141
12.0
290
     0
  0
SCALE
  5
5A
102
{ACAD_REACTORS
330
47
102
}
330
47
100
AcDbScale
 70
     0
300
1/64" = 1'-0"
140
0.015625
141
12.0
290
     0
  0
SCALE
  5
5B
102
{ACAD_REACTORS
330
47
102
}
330
47
100
AcDbScale
 70
     0
300
1/32" = 1'-0"
140
0.03125
141
12.0
290
     0
  0
SCALE
  5
5C
102
{ACAD_REACTORS
330
47
102
}
330
47
100
AcDbScale
 70
     0
300
1/16" = 1'-0"
140
0.0625
141
12.0
290
     0
  0
SCALE
  5
5D
102
{ACAD_REACTORS
330
47
102
}
330
47
100
AcDbScale
 70
     0
300
3/32" = 1'-0"
140
0.09375
141
12.0
290
     0
  0
SCALE
  5
5E
102
{ACAD_REACTORS
330
47
102
}
330
47
100
AcDbScale
 70
     0
300
1/8" = 1'-0"
140
0.125
141
12.0
290
     0
  0
SCALE
  5
5F
102
{ACAD_REACTORS
330
47
102
}
330
47
100
AcDbScale
 70
     0
300
3/16" = 1'-0"
140
0.1875
141
12.0
290
     0
  0
SCALE
  5
60
102
{ACAD_REACTORS
330
47
102
}
330
47
100
AcDbScale
 70
     0
300
1/4" = 1'-0"
140
0.25
141
12.0
290
     0
  0
SCALE
  5
61
102
{ACAD_REACTORS
330
47
102
}
330
47
100
AcDbScale
 70
     0
300
3/8" = 1'-0"
140
0.375
141
12.0
290
     0
  0
SCALE
  5
62
102
{ACAD_REACTORS
330
47
102
}
330
47
100
AcDbScale
 70
     0
300
1/2" = 1'-0"
140
0.5
141
12.0
290
     0
  0
SCALE
  5
63
102
{ACAD_REACTORS
330
47
102
}
330
47
100
AcDbScale
 70
     0
300
3/4" = 1'-0"
140
0.75
141
12.0
290
     0
  0
SCALE
  5
64
102
{ACAD_REACTORS
330
47
102
}
330
47
100
AcDbScale
 70
     0
300
1" = 1'-0"
140
1.0
141
12.0
290
     0
  0
SCALE
  5
65
102
{ACAD_REACTORS
330
47
102
}
330
47
100
AcDbScale
 70
     0
300
1-1/2" = 1'-0"
140
1.5
141
12.0
290
     0
  0
SCALE
  5
66
102
{ACAD_REACTORS
330
47
102
}
330
47
100
AcDbScale
 70
     0
300
3" = 1'-0"
140
3.0
141
12.0
290
     0
  0
SCALE
  5
67
102
{ACAD_REACTORS
330
47
102
}
330
47
100
AcDbScale
 70
     0
300
6" = 1'-0"
140
6.0
141
12.0
290
     0
  0
SCALE
  5
68
102
{ACAD_REACTORS
330
47
102
}
330
47
100
AcDbScale
 70
     0
300
1'-0" = 1'-0"
140
12.0
141
12.0
290
     0
  0
ENDSEC
  0
EOF
